Chordie logo

Cowboy Song    Thin Lizzy



Band: Thin Lizzy
Song: Cowboy Song
Album: Jailbreak

I: Intro, bridge (clean)
II: guitar 1 (medium distortion)
III: guitar 2 (medium distortion)

Intro
I:
|-----------------------------------------------2---------3-2-----|
|-------2-2-3p2---------------------------------------3---3---3---|
|-----2---2-----------------------------------2-------2---------2-|
|---2-----------2-------2-----2-2-----------2---------0-0---------|
|-0---------------0---2---2h4-----4p2-----4---------2-------------|
|-------------------0-----------------0-2---------2-0-------------|


|-------------------------7-4-------------2------2--3-2-------|
|-------2-2-3p2---------5------------------------3------3-----|
|-----2---2-------------------4---------2--------2--------2---|
|---2---------2-2-----6---------6-----2----------0----------0-|
|-0---------------0-4---------------4---------2---------------|
|---------------------------------2-----------0---------------|


|-------------------------------------------------------------2-------|
|-------2-2-3p2---------------------------------2-----------3---3-----|
|-----2---2-----------------------------------2-------4---2-------2---|
|---2---------2-2-------2-----2-2-----------2-----------0-----------0-|
|-0---------------0---2---2h4-----4p2-----4---------------------------|
|-------------------0-----------------0-2---------2-0-----------------|


|---------------------------7---------------2------2-|
|-------2-2-3p2-----------5---5--------------------3-|
|-----2---2-------------4-------4---------2--------2-|
|---2---------2-2-----6-----------------2----------0-|
|-0---------------0-4-------------4---4---------2----|
|-----------------------------------2-----------0----|

II:
|-----------------------------------------|------------------|
|-----------------------------------------|------------------|
|-2-2---2-----2-2---2-----2-2-----------2-|--2-2---2-----2-2-|
|-----4---4-4-----2---2-2-----0-0-------2-|------4---4-4-----|
|---------------------------------4-2-0-0-|------------------|
|-----------------------------------------|------------------|

                                     III:
                                          |--5-5---5-----5-5-|
                                          |------------------|
                                          |------7---7-7-----|
                                          |------------------|
                                          |------------------|
                                          |------------------|

II:
|-----------------------------------------|
|-----------------------------------------|
|---2-----2-2-----------2-----5-----7-----|
|-2---2-2-----0-0-------2-----5-----7-----|
|-----------------4-2-0---5h7---7h9---9\0-|
|-----------------------------------------|

III:
|---5-----5-5-----------------------------|
|-----------------------------------------|
|-6---6-6-----4---------2-----------------|
|-----------------7-4---2-------/9--------|
|---------------------7-0------------9\---|
|-----------------------------------------|

Verse:
II:
|-----------------------------------------------------------|
|-----------------------------------------------------------|
|-------------------------------------------x-2-4---2---4-2-|
|-2-4---2-2-4-------------------------------x-0-0---0---0-0-|
|-0-0-0-0-0-0-2---2-4---2-2-4-4---4-4-4---2-----------------|
|-------------0-0-0-0-0-0-0-0-2-2-2-2-2---0-----------------|

III:
|-----------------------------------2-2-----x-2-3p2-2-2-----|
|-----------------------------------2-2-----x-3-3---3-3-0---|
|-------------------------------------------x-2-2---2---0---|
|-2-4---2-2-4---------------------------------0-0---0---0-2-|
|-0-0-0-0-0-0-2---2-4---2-2-4-4---------0-2---------------0-|
|-------------0-0-0-0-0-0-0-0-2-2-2-----0-0-----------------|

II:
|------------------------------------------------------------|
|------------------------------------------------------------|
|---------------------------------------------x-2--4---2-4---|
|-----4---2-2-4-6---6---6-6---x---------------x-0--0---0-0-2-|
|---0-0-0-0-0-0-4-4-4-4-4-4---x-4---4-4-4---2--------------0-|
|-------------------------------2-2-2-2-2---0----------------|

III:
|---------------------4-4---4-x-------2-2-------2--3p2-2-----|
|---------------------5-5---5-x-------2-2-------3--3---3-0---|
|---------------------4-4---4-x---------------x-2--2---2-0---|
|-----4---2-2-----x-6-----6-------------------x-0--0---0-0-2-|
|-0-0-0-0-0-0-0-4-x-4-----------4---------0-2--------------0-|
|-------------------------------2-2-2-----0-0----------------|

II:
|-----------------------------------------------------------|
|-----------------------------------------------------------|
|-------------------------------------------x-2-4---2---4-2-|
|---4---2-2-4-------------------------------x-0-0---0---0-2-|
|-0-0-0-0-0-0-2---2-4---2-2-4-4---4-4-4---2---------------0-|
|-------------0-0-0-0-0-0-0-0-2-2-2-2-2---0-----------------|

III:
|-----------------------------------2-2-----x-2-3p2-2-2-----|
|-----------------------------------2-2-----x-3-3---3-3-0---|
|-------------------------------------------x-2-2---2---0---|
|-2-4---2-2-4---------------------------------0-0---0---0-2-|
|-0-0-0-0-0-0-2---2-4---2-2-4-4---------0-2---------------0-|
|-------------0-0-0-0-0-0-0-0-2-2-2-----0-0-----------------|

II:
|--------------------------------------------------------------|
|--------------------------------------------------------------|
|----------------------------------------------x-2--4---2--2-2-|
|-----4---2-2-4-6---6---6-6-6------------------x-0--0---0------|
|---0-0-0-0-0-0-4-4-4-4-4-4-4---4----4-4-4---2-----------------|
|-------------------------------2--2-2-2-2---0-----------------|

III:
|---------------------4-4---4-x--------2-2-------2--3p2-2------|
|---------------------5-5---5-x--------2-2-------3--3---3------|
|---------------------4-4---4-x----------------x-2--2---2------|
|-----4---2-2-----x-6-----6--------------------x-0--0---0-/7-7-|
|-0-0-0-0-0-0-0-4-x-4-----------4----------0-2-----------------|
|-------------------------------2--2-2-----0-0-----------------|

Chorus:
II:
|---------------------------------------------------------|
|---------------------------------------------------------|
|---2-----2-2---2-----2-2-------------2---2-2---2-----2-2-|
|-4---4-4-----2---2-2-----0-0---------2-------4---4-4-----|
|-----------------------------4---2-0-0-------------------|
|---------------------------------------------------------|

III:
|---------------------------------------------------------|
|---------------------------------------------------------|
|-------------------------------------2-------------------|
|---7-----7-7---7-----7-7-------------2--/7-7---7-----7-7-|
|-5---5-5-----4---4-4-----2-0---------0-------5---5-5-----|
|-----------------------------0-2-0-0---------------------|

II:
|-------------------------------------------|
|-------------------------------------------|
|---2-----2-2-------------2-----5-----7-----|
|-2---2-2-----0-0---------2-----5-----7-----|
|-----------------4---2-0---5h7---7h9---9\0-|
|-------------------------------------------|

III:
|-------------------------------------------|
|-------------------------------------------|
|-------------------------2-----------------|
|---7-----7-7-------------2-------/9--------|
|-4---4-4-----2-0---------0------------9\---|
|-----------------0-2-0-0-------------------|

Bridge:
I:
|-----------------------------------------------------------------------|
|-----------------------------------------------------------------------|
|-----------2-2-----------2-2---------------2---------2-2-----------2-2-|
|-4--x-4--x-----2--x-2--x-----2-------------2-------------4--x-4--x-----|
|-5--x-5--------4--x-4--------0--x-4--2---0-0-------------5--x-5--------|
|--------------------------------x-5--2---0-----------------------------|


|-----------------------------------------------------------------------|
|-----------------------------------------------------------------------|
|-----------2-2---------------2----3-2--2-2-----------2-2-----------2-2-|
|-2--x-2--x-----2-------------2----2-2------4--x-4--x-----2--x-2--x-----|
|-4--x-4--------0--x-4--2---0-0----4-2------5--x-5--------4--x-4--------|
|------------------x-5--2---0-------------------------------------------|


|---------------------------------------------------------------------------------|
|---------------------------------------------------------------------------------|
|---------------2---------2-2-----------2-2-----------2-2----------------2----2-2-|
|-0-------------2-------------4--x-4--x-----2--x-2--x-----2--------------2--------|
|-2--x-4--2---0-0-------------5--x-5--------4--x-4--------0--x-4--2---0--0--------|
|----x-5--2---0----------------------------------------------x-5--2---0-----------|

II:
|-----------------------------------------------|
|-7-----5-----3-----2---------7-----5-----3-----|
|-7-----6-----4-----2---4--2--7-----6-----4-----|
|-----------------------4--2--------------------|
|-----------------------------------------------|
|-----------------------------------------------|



II:
|-------------------------------|-----------|------------------------------|
|----------------------------10-|------3-2--|---7-----5-----3-----2--------|
|-------------------9--9-h11----|--2---2-2--|---7-----6-----4-----2---4--2-|
|------------7-9h11-------------|--2-4-4-2--|-------------------------4--2-|
|-----7-7h9---------------------|-----------|------------------------------|
|-7h9---------------------------|-----------|------------------------------|

III:
|----------------------------12-|
|-------------------10-12h14----|
|------------9-9h11-------------|
|-----7-9h11--------------------|
|-7h9---------------------------|
|-------------------------------|

II:
|-------------------------------------------------|
|-7-----5-----3--------------------------------10-|
|-7-----6-----4-----------------------9--9-h11----|
|------------------------------7-9h11-------------|
|-----------------------7-7h9---------------------|
|-------------------7h9---------------------------|


                  III:
                  |----------------------------12-|
                  |-------------------10-12h14----|
                  |------------9-9h11-------------|
                  |-----7-9h11--------------------|
                  |-7h9---------------------------|
                  |-------------------------------|

End riff
II:
|---------------------------------------------------------|
|---------------------------------------------------------|
|---2-----2-2---2-----2-2-------------2---2-2---2-----2-2-|
|-4---4-4-----2---2-2-----0-0---------2-------4---4-4-----|
|-----------------------------4---2-0-0-------------------|
|---------------------------------------------------------|

III:
|---------------------------------------------------------|
|---------------------------------------------------------|
|-------------------------------------2-------------------|
|---7-----7-7---7-----7-7-------------2--/7-7---7-----7-7-|
|-5---5-5-----4---4-4-----2-0---------0-------5---5-5-----|
|-----------------------------0-2-0-0---------------------|

II:
|----------------------------------|
|----------------------------------|
|---2-----2-2---------------1----2-|
|-2---2-2-------0---2---4---2----2-|
|---------------2---4---5--------0-|
|----------------------------------|

III:
|----------------------------------|
|----------------------------------|
|---------------------------1----2-|
|---7-----7-7---0---2---4---2----2-|
|-4---4-4-------2---4---5--------0-|
|----------------------------------|


Solo 1 II:
|------------------------------------------------------------------------|
|---------------------------------------17^19-17^19-17^19-17-15----17-15-|
|-14----14----14-16^18--16-14----16-14--------------------------16-------|
|----16----16-----------------16-----------------------------------------|
|------------------------------------------------------------------------|
|------------------------------------------------------------------------|


|----------------------------------------------------------------------|
|-----------17---------------------------------------------------------|
|-16^18--------16--16-14----16-14-----------------------------------14-|
|------------------------16-----------------------14/16----14-14h16----|
|---------------------------------12/14--12----12----------------------|
|-------------------------------------------14-------------------------|

|-------------------------------------------------------------------------------|
|-------------------------------------17p14----17p14----17p14----17p14----17p14-|
|-------14-------14-------14----------------14-------14-------14-------14-------|
|-14h16----14h16----14h16----14h16-14-------------------------------------------|
|-------------------------------------------------------------------------------|
|-------------------------------------------------------------------------------|


|----------14-------14-------14-------14------------14----17p14-------------|
|-14-14h17----14h17----14h17----14h17----14-17^19------17-------17-17p14----|
|------------------------------------------------------------------------16-|
|---------------------------------------------------------------------------|
|---------------------------------------------------------------------------|
|---------------------------------------------------------------------------|


|---------------------------------------------------------------------------|
|-------14----14h15p14--------14----14h15p14--------14----14h15p14----------|
|-14h16----16-----------14h16----16-----------14h16----16----------16-14----|
|------------------------------------------------------------------------16-|
|---------------------------------------------------------------------------|
|---------------------------------------------------------------------------|


|--------------------17-17----17----17--------17-17----17-------17-17-------------|
|---------------------------------------------------------------------------------|
|-16p14-14--14-0-14--------19----19----19--19-------18----18-18-------16----------|
|----------------14------------------------------------------------------19-16----|
|------------------------------------------------------------------------------19-|
|---------------------------------------------------------------------------------|


|--------17-17----17----17--------17-17----17-------17-17-------------------|
|---------------------------------------------------------------------------|
|--------------19----19----19--19-------18----18-18-------16----------------|
|-16h19------------------------------------------------------19-16----16h19-|
|------------------------------------------------------------------19-------|
|---------------------------------------------------------------------------|

solo 2 III:
|----------------------------------------------14-------------------------------|
|-------------------------------------------14----17p14-17p14-17p14-17p14-17p14-|
|-16^18-16^18-16^18-16^18-16-14----14-16^18-------------------------------------|
|-------------------------------16----------------------------------------------|
|-------------------------------------------------------------------------------|
|-------------------------------------------------------------------------------|


|---------------------------------------------------------------------------|
|---------------------------------------------------------------------------|
|-16^18r-14----14-----------------------------------------------------------|
|-----------16----16-14-14-----------------14-14-14----14-14-14-14----14-14-|
|--------------------------14-12-14-12-/16----------15-------------16-------|
|---------------------------------------------------------------------------|


|----------------------------------------------14----------------14-------------|
|-------------------------------------------14----17p14-------14----17p14-------|
|-------------------------14-14-14-14-16^18-------------16^18-------------16^18-|
|-14-14----14-14-14-14h16-------------------------------------------------------|
|-------15----------------------------------------------------------------------|
|-------------------------------------------------------------------------------|


|----14----------------14----------------14----------------14-------------------|
|-14----17p14-------14----17p14-------14----17p14-------14----17p14-------17p14-|
|-------------16^18-------------16^18-------------16^18-------------16^18-------|
|-------------------------------------------------------------------------------|
|-------------------------------------------------------------------------------|
|-------------------------------------------------------------------------------|


|---------------------------------------------------------------------------|
|-17^19-17-15-14---------------------------------------------17-------------|
|----------------14--------14-16-16^18r-14----14-16-14-16^17----16-14-------|
|--------------------14-16-----------------16-------------------------16-14-|
|---------------------------------------------------------------------------|
|---------------------------------------------------------------------------|


|---------------------------------------------14-17-16-14-16-17-----------------|
|------------------------------------------14-------------------14--17-14-17^19-|
|---------------------------------14-16^18--------------------------------------|
|-----------------14-16----14-16------------------------------------------------|
|-14-12-14-12-/16-------16------------------------------------------------------|
|-------------------------------------------------------------------------------|

|-17-17^19-17----|
|-17-17^19----17-|
|----------------|
|----------------|
|----------------|
|----------------|


song-structure:
intro
verse
chorus
verse
chorus
II: Solo 1 III: verse + verse
Bridge
III: Solo 2 II: verse
Chorus


Important: The song above is NOT stored on the Chordie server. The original song is hosted at www.xguitar.com. Chordie works as a search engine and provides on-the-fly formatting. Chordie does not index songs against artists/composers will. To remove this song please click here.

This song is displayed as text-only. Transposing and tuning is only available for chordpro-songs.

Login - add to songbook

Rating click stars to rate

Layout
Accuracy

SHARE PAGE  

You need to log in to post comments