Guitar Tabs, Chords and Lyrics


The Changing of Times    Underoath



Artist: Underoath
Album: The Changing of Times
Song: The Changing of Times
Tabbed by: Ben Palmer

Note: This is one of my favorite songs from the new album. Its probly not exact
because I played with the cd on an acoustic, but I'm sure it's pretty close.
Just play along with the cd for struming patterns and counts, I just kind of
guessed how many times each note was played. This is a fun one, enjoy!



D -----------------------
a -3-------3-------------
d -----------5-----------     x8
g ---5---5-----5---5-----
b -----0---------0-------

D -7-7-7-7-7--7-7-7-7-7--7-7-7--8--8--8--8--8-
a -7-7-7-7-7--7-7-7-7-7--7-7-7--8--8--8--8--8-     x4
d -7-7-7-7-7--7-7-7-7-7--7-7-7--8--8--8--8--8-

D -3-3-3-3-3--0-
a -3-3-3-3-3--0-    x2
d -5-5-5-5-5----

D -0--0--0-0-0--
a -0--0--0-0-0--     x8
 pm.............

D --------------- not too sure about this one
a -8-7-5-7-8-7-5-      x8
 pm..............

D ----------------------------------
a -7-7-7-7-7-7/8--8--8--8--8--8--8--    x2
d ----------------------------------
g -9-9-9-9-9-9/10-10-10-10-10-10-10-

D ----------------------------------
a -8--8--8--8--8/10-10-10-10-10/12-12-12-12-12/10-10-10-10-
d ---------------------------------------------------------
g 10-10-10-10-10/12-12-12-12-12/14-14-14-14-14/12-12-12-12-

D ------------------------------------------
a -12/13/15-15-15-15-15-15-(a lot of times)-
d ------------------------------------------
g -14/15/17-17-17-17-17-17-(a lot of times)-

D --------------------------------------
a -15/13-13/15/13-13/15-(lots of times)-
d --------------------------------------
g -17/15-15/17/15-15/17-(lots of times)-

D -0-0-0-0-0-0-0-0-0-0----------------------
a ------------------------------13-15-------   x12
d ---------------------13-13-13-------15---- Maybe not exact, but close
g ---------------------15-15-15----------15-
 pm...................

     Bass break

D --------------------
a -8-7--8-10-10-10-10-
d --------------------    x4
g 10-9-10-12-12-12-12-

D -------------------------
a -8--8--8--8--8/7-7-7-7-7-   x2
d 10-10-10-10-10/9-9-9-9-9-

D --------------------
a -8-7--8-10-10-10-10-
d --------------------


Important: The song above is NOT stored on the Chordie server. The original song is hosted at www.xguitar.com. Chordie works as a search engine and provides on-the-fly formatting. Chordie does not index songs against artists'/composers' will. To remove this song please click here.

This song is displayed as text-only. Transposing and tuning is only available for chordpro-songs.

Login - add to songbook

Rating click stars to rate

Layout
Accuracy

SHARE PAGE  




You need to log in to post comments