Guitar Tabs, Chords and Lyrics


Letting Go of Tonight    Underoath



Underoath-Letting go of tonight
Tabbed By-Nic Hamersly & Shaun West
WWW.afhtfc.TK
Intro
E|--------------|
B|--------------|
G|--------------|
D|---10~-----12~|
A|--8------10---|
D|-8-----10-----|

Part After Guitar 1
E|------------------------------|
B|------------------------------|
G|-99999/10101010101010-7777777-|
D|-xxxxx/-x-x-x-x-x-x-x-xxxxxxx-|
A|-77777/-8-8-8-8-8-8-8-5555555-|
D|------------------------------|

Part After Guitar 2
E|----------------------|
B|----------------------|
G|----------------------|
D|-3333333333333-888888-|
A|-3333333333333-888888-|
D|-3333333333333-888888-|
  P.M.----------|
Chorus I'm Not Gonna Put The Rythem
Guitar 1
E|-----------|
B|-----------|
G|-8-9-10-10-|
D|-8-8--8--8-|
A|-8-8--8--8-|
D|-8-8--8--8-|
I'm Not Sure If They Actually Do This But
If You Have Two Guitars It Sounds Better.
E|-----------|
B|-----------|
G|-7-9-10-12-|
D|-x-x--x--x-|
A|-5-7--8-10-|
D|-----------|

Part After
E|------------------------------------|
B|------------------------------------|
G|-555555-777777-333333-121212-101010-|
D|-xxxxxx-xxxxxx-xxxxxx--x-x-x--x-x-x-|
A|-333333-555555-111111-101010--8-8-8-|
D|------------------------------------|

Verse
E|----------|
B|----------|
G|-5~-7~-3~-|
D|-x~-x~-x~-|
A|-3~-5~-1~-|
D|----------|

Part After
E|-----------------------------------|
B|-----------------------------------|
G|-1212121212121212-1010101010101010-|
D|--x-x-x-x-x-x-x-x--x-x-x-x-x-x-x-x-|
A|-1010101010101010--8-8-8-8-8-8-8-8-|
D|-----------------------------------|


Important: The song above is NOT stored on the Chordie server. The original song is hosted at www.xguitar.com. Chordie works as a search engine and provides on-the-fly formatting. Chordie does not index songs against artists'/composers' will. To remove this song please click here.

This song is displayed as text-only. Transposing and tuning is only available for chordpro-songs.

Login - add to songbook

Rating click stars to rate

Layout
Accuracy

SHARE PAGE  




You need to log in to post comments