Guitar Tabs, Chords and Lyrics


Pieces Mended    Used



Used - Pieces Mended
Submitted By: hoobastank_182__
EMail: no_parking182@hotmail.com


Tuning: Drop D - D A D G B E

Key:
h - Hammer on
p - Pull-off
x - Rake
* - Harmonic
% - Pause
.p.m. - Palm mute
/ - Slide up
\ - Slide down
~ - Sustain

Guitar:
Guitar1

Intro
e|--0-0-0-0-0-0-0-0-0-0-0-0-0-0-0-0-0-0-0-0-0-0-0-0-0-0-0-0--0-0-0-0-0-0-0-0-0-0-0-0-0-0-0-0--|
B|--4-4-4-4-4-4-4-4-4-4-4-4-4-4-4-4-4-4-4-4-4-4-4-4-4-4-4-4--5-5-5-5-5-5-5-5-5-5-5-5-5-5-5-5--|
G|--------------------------------------------------------------------------------------------|
D|--------------------------------------------------------------------------------------------|
A|--------------------------------------------------------------------------------------------|
E|--------------------------------------------------------------------------------------------|

e|------------------------------------------------------------------------------------------|
B|------------------------------------------------------------------------------------------|
G|------------------------------------------------------------------------------------------|
D|--4-4-4p2h4--x-x-x-x--4-4-4p2h4--x-x-x-x--0-0-0-0-0--*3-*3-*3-*3--0-0-0-0-0--*3-*3-*3-*3--|
A|--4-4-4p2h4--x-x-x-x--4-4-4p2h4--x-x-x-x--0-0-0-0-0--*3-*3-*3-*3--0-0-0-0-0--*3-*3-*3-*3--|
E|--4-4-4p2h4--x-x-x-x--4-4-4p2h4--x-x-x-x--0-0-0-0-0--*3-*3-*3-*3--0-0-0-0-0--*3-*3-*3-*3--|

e|------------------------------------------------------------------------------------------|
B|------------------------------------------------------------------------------------------|
G|------------------------------------------------------------------------------------------|
D|--4-4-4p2h4--x-x-x-x--4-4-4p2h4--x-x-x-x--0-0-0-0-0--*3-*3-*3-*3--0-0-0-0-0--*3-*3-*3-*3--|
A|--4-4-4p2h4--x-x-x-x--4-4-4p2h4--x-x-x-x--0-0-0-0-0--*3-*3-*3-*3--0-0-0-0-0--*3-*3-*3-*3--|
E|--4-4-4p2h4--x-x-x-x--4-4-4p2h4--x-x-x-x--0-0-0-0-0--*3-*3-*3-*3--0-0-0-0-0--*3-*3-*3-*3--|

Verse1
e|---0--0-0--0--%---0--0-0--0--%---0--0--0--0--%---0--0--0--0---0--0-0--0--%---0--0-0--0--%--|
B|--10-10-9-10--%--10-10-9-10--%--14-14-14-14--%--17-17-17-17--10-10-9-10--%--10-10-9-10--%--|
G|--------9-----%--------9-----%--------14-----%--------14-----------9-----%--------9-----%--|
D|-------------------------------------------------------------------------------------------|
A|-------------------------------------------------------------------------------------------|
E|-------------------------------------------------------------------------------------------|

e|---0--0--0--0--0--0--0--0--0--0--|
B|--14-14-14-14-14-14-14-14-14-14--|
G|---------------------------------|
D|---------------------------------|
A|---------------------------------|
E|---------------------------------|

Chorus1
e|--0-0-0-0-0-0-0-0--0-0-0-0---0--0--0--0--0--0--0--0--0--0--0--0--0--0--0--0--0--0--|
B|--7-7-7-7-7-7-7-7--9-9-9-9--10-10-10-10-10-10-10-10-10-10-10-10-10-10-10-10-10-10--|
G|-----------------------------------------------------------------------------------|
D|-----------------------------------------------------------------------------------|
A|-----------------------------------------------------------------------------------|
E|-----------------------------------------------------------------------------------|

e|--0-0-0-0-0-0-0-0--0-0-0-0---0--0--0--0--0--0--0--0--0--0--0--0--------------------------|
B|--7-7-7-7-7-7-7-7--9-9-9-9--10-10-10-10-10-10-10-10-10-10-10-10--------------------------|
G|-----------------------------------------------------------------------------------------|
D|----------------------------------------------------------------0-0-0-0-0-0-0-0-0-0-0-0--|
A|----------------------------------------------------------------0-0-0-0-0-0-0-0-0-0-0-0--|
E|----------------------------------------------------------------0-0-0-0-0-0-0-0-0-0-0-0--|

Verse2
e|--0-0-0-0-0-0-0-0-0-0-0-0-0-0-0-0--0-0-0-0-0-0-0-0-0-0-0-0-0-0-0-0--|
B|--9-9-9-9-9-9-9-9-9-9-9-9-9-9-9-9--7-7-7-7-7-7-7-7-7-7-7-7-7-7-7-7--|
G|--------------------------------------------------------------------|
D|--------------------------------------------------------------------|
A|--------------------------------------------------------------------|
E|--------------------------------------------------------------------|

e|---0--0--0--0--0--0--0--0--0--0--0--0--0--0--0--0--0-0-0-0-0-0-0-0-0-0-0-0-0-0-0-0--|
B|--10-10-10-10-10-10-10-10-10-10-10-10-10-10-10-10--7-7-7-7-7-7-7-7-7-7-7-7-7-7-7-7--|
G|------------------------------------------------------------------------------------|
D|------------------------------------------------------------------------------------|
A|------------------------------------------------------------------------------------|
E|------------------------------------------------------------------------------------|

Bridge
e|----------------------------------------------------------------------------------|
B|--10-10-10-10-10-10-10-10-10-10-10-10-10-10-10-10--7-7-7-7-7-7-7-7-7-7-7-7-7-7-7--|
G|----------------------------------------------------------------------------------|
D|----------------------------------------------------------------------------------|
A|----------------------------------------------------------------------------------|
E|----------------------------------------------------------------------------------|
.......................................p.m.......................................

e|----------------------------------------------------------------------------------0-0-0-0--|
B|--10-10-10-10-10-10-10-10-10-10-10-10-10-10-10-10--7-7-7-7-7-7-7-7-7-7-7-7-7-7-7--7-7-7-7--|
G|-------------------------------------------------------------------------------------------|
D|-------------------------------------------------------------------------------------------|
A|-------------------------------------------------------------------------------------------|
E|-------------------------------------------------------------------------------------------|
.......................................p.m.......................................

e|---------------------------|
B|---------------------------|
G|--16-16-16-16-16-16-16-16--|
D|---------------------------|
A|--14-14-14-14-14-14-14-14--|
E|---------------------------|

Chorus2
e|------------------------------------------------------------------------------------------|
B|------------------------------------------------------------------------------------------|
G|------------------------------------------------------------------------------------------|
D|--4-4-4p2h4--x-x-x-x--4-4-4p2h4--x-x-x-x--0-0-0-0-0--*3-*3-*3-*3--0-0-0-0-0--*3-*3-*3-*3--|
A|--4-4-4p2h4--x-x-x-x--4-4-4p2h4--x-x-x-x--0-0-0-0-0--*3-*3-*3-*3--0-0-0-0-0--*3-*3-*3-*3--|
E|--4-4-4p2h4--x-x-x-x--4-4-4p2h4--x-x-x-x--0-0-0-0-0--*3-*3-*3-*3--0-0-0-0-0--*3-*3-*3-*3--|

e|------------------------------------------------------------------------------------------|
B|------------------------------------------------------------------------------------------|
G|------------------------------------------------------------------------------------------|
D|--4-4-4p2h4--x-x-x-x--4-4-4p2h4--x-x-x-x--0-0-0-0-0--*3-*3-*3-*3--0-0-0-0-0--*3-*3-*3-*3--|
A|--4-4-4p2h4--x-x-x-x--4-4-4p2h4--x-x-x-x--0-0-0-0-0--*3-*3-*3-*3--0-0-0-0-0--*3-*3-*3-*3--|
E|--4-4-4p2h4--x-x-x-x--4-4-4p2h4--x-x-x-x--0-0-0-0-0--*3-*3-*3-*3--0-0-0-0-0--*3-*3-*3-*3--|

e|---------------------------------------------------------------|
B|---------------------------------------------------------------|
G|--16-16-16-16-16-16-16-16-16-16\14-14-14-14\13-13-13-13-13-13--|
D|---------------------------------------------------------------|
A|--14-14-14-14-14-14-14-14-14-14\12-12-12-12\11-11-11-11-11-11--|
E|---------------------------------------------------------------|

e|-------------------------------------------------------------------------|
B|---------------------------------------------------18-18-18\17-17-17-17--|
G|--16-16-16-16-16-16-16-16-16-16/18-18-18-18-18-18------------------------|
D|---------------------------------------------------15-15-15\14-14-14-14--|
A|--14-14-14-14-14-14-14-14-14-14/16-16-16-16-16-16------------------------|
E|-------------------------------------------------------------------------|

Outro
e|---0--0--0-0--0-0---0--0--0-0--0-0---0--0--0-0--0-0--|
B|--10-10--9-9--7-7--10-10--9-9--7-7--10-10--9-9--7-7--|
G|---9--9--9-9--9-9---9--9--9-9--9-9---9--9--9-9--9-9--|
D|-----------------------------------------------------|
A|-----------------------------------------------------|
E|-----------------------------------------------------|

e|------------------------------------------------------------------------------------|
B|------------------------------------------------------------------------------------|
G|------------------------------------------------------------------------------------|
D|--4-4-4-4-4-4-4-4-4-4-4-4-4-4-4-4-4-4-4-4--0-0-0-0-0-0-0-0-0-0-0-0-0-0-0-0-0-0-0-0--|
A|--4-4-4-4-4-4-4-4-4-4-4-4-4-4-4-4-4-4-4-4--0-0-0-0-0-0-0-0-0-0-0-0-0-0-0-0-0-0-0-0--|
E|--4-4-4-4-4-4-4-4-4-4-4-4-4-4-4-4-4-4-4-4--0-0-0-0-0-0-0-0-0-0-0-0-0-0-0-0-0-0-0-0--|

e|------------------------------------------------------------------------------------|
B|------------------------------------------------------------------------------------|
G|------------------------------------------------------------------------------------|
D|--2-2-2-2-2-2-2-2-2-2-2-2-2-2-2-2-2-2-2-2--7-7-7-7-7-7-7-7-7-7-7-7-7-7-7-7-7-7-7-7--|
A|--2-2-2-2-2-2-2-2-2-2-2-2-2-2-2-2-2-2-2-2--7-7-7-7-7-7-7-7-7-7-7-7-7-7-7-7-7-7-7-7--|
E|--2-2-2-2-2-2-2-2-2-2-2-2-2-2-2-2-2-2-2-2--7-7-7-7-7-7-7-7-7-7-7-7-7-7-7-7-7-7-7-7--|

e|------------------------------------------------------------------------------------|
B|------------------------------------------------------------------------------------|
G|------------------------------------------------------------------------------------|
D|--4-4-4-4-4-4-4-4-4-4-4-4-4-4-4-4-4-4-4-4--0-0-0-0-0-0-0-0-0-0-0-0-0-0-0-0-0-0-0-0--|
A|--4-4-4-4-4-4-4-4-4-4-4-4-4-4-4-4-4-4-4-4--0-0-0-0-0-0-0-0-0-0-0-0-0-0-0-0-0-0-0-0--|
E|--4-4-4-4-4-4-4-4-4-4-4-4-4-4-4-4-4-4-4-4--0-0-0-0-0-0-0-0-0-0-0-0-0-0-0-0-0-0-0-0--|

e|------------------------------------------------------------------------------------|
B|------------------------------------------------------------------------------------|
G|------------------------------------------------------------------------------------|
D|--2-2-2-2-2-2-2-2-2-2-2-2-2-2-2-2-2-2-2-2--7-7-7-7-7-7-7-7-7-7-7-7-7-7-7-7-7-7-7-7--|
A|--2-2-2-2-2-2-2-2-2-2-2-2-2-2-2-2-2-2-2-2--7-7-7-7-7-7-7-7-7-7-7-7-7-7-7-7-7-7-7-7--|
E|--2-2-2-2-2-2-2-2-2-2-2-2-2-2-2-2-2-2-2-2--7-7-7-7-7-7-7-7-7-7-7-7-7-7-7-7-7-7-7-7--|

e|---------------------|
B|---------------------|
G|---------------------|
D|--4~~~~~~~~~~~~~~~~--|
A|--4~~~~~~~~~~~~~~~~--|
E|--4~~~~~~~~~~~~~~~~--|

Piano Outro
e|-------------------------------------------------------------------------------------------|
B|-------------------------------------------------------------------------------------------|
G|-------------------------------------------------------------------------------------------|
D|--------------6~~--7~~--------------6~~--7~~---------------6~~--7~~--------------6~~--7~~--|
A|---------4~~-------------------4~~-------------------4~~--------------------4~~------------|
E|--4~~~~-----------------0~~~~-----------------2~~~~------------------7~~~~-----------------|

e|---------------------|
B|---------------------|
G|---------------------|
D|---------------------|
A|---------------------|


Important: The song above is NOT stored on the Chordie server. The original song is hosted at www.xguitar.com. Chordie works as a search engine and provides on-the-fly formatting. Chordie does not index songs against artists'/composers' will. To remove this song please click here.

This song is displayed as text-only. Transposing and tuning is only available for chordpro-songs.

Login - add to songbook

Rating click stars to rate

Layout
Accuracy

SHARE PAGE  




You need to log in to post comments