Guitar Tabs, Chords and Lyrics


Broken Bricks    White Stripes



Broken Bricks by the White Stripes.

Tabbed by the one and only danthaman

|---------------------------------|
|---------------------------------|
|---------------------------------|
|--7-7-7-x-10-10-x-12-12-x-10-10--|   X 12
|--7-7-7-x-10-10-x-12-12-x-10-10--|
|--5-5-5-x-8--8--x-10-10-x-8--8---|



|------------------------------------------------|
|------------------------------------------------|
|------------------------------------------------|
|--7-7-x-5-5-x-7-7-x-5-5-x-7-7-x-5-5-x-10-9-8-7--|    X 2
|--7-7-x-5-5-x-7-7-x-5-5-x-7-7-x-5-5-x-10-9-8-7--|
|--5-5-x-3-3-x-5-5-x-3-3-x-5-5-x-3-3-x-8--7-6-5--|



|---------------------------------|
|---------------------------------|
|---------------------------------|
|--7-7-7-x-10-10-x-12-12-x-10-10--|   X 11
|--7-7-7-x-10-10-x-12-12-x-10-10--|
|--5-5-5-x-8--8--x-10-10-x-8--8---|



|-----------------------------------------------|
|-----------------------------------------------|
|-----------------------------------------------|
|--7-7-x-5-5-x-7-7-x-5-5-x-7-7-x-5-5-x-3-4-5-6--|    X 2
|--7-7-x-5-5-x-7-7-x-5-5-x-7-7-x-5-5-x-3-4-5-6--|
|--5-5-x-3-3-x-5-5-x-3-3-x-5-5-x-3-3-x-1-2-3-4--|



|-------------------------------|
|-------------------------------|
|--------------------------9-9--|
|--7-7-7-x-10-10-x-12-12-x-9-9--|   X 8
|--7-7-7-x-10-10-x-12-12-x-7-7--|


Important: The song above is NOT stored on the Chordie server. The original song is hosted at www.xguitar.com. Chordie works as a search engine and provides on-the-fly formatting. Chordie does not index songs against artists/composers will. To remove this song please click here.

This song is displayed as text-only. Transposing and tuning is only available for chordpro-songs.

Login - add to songbook

Rating click stars to rate

Layout
Accuracy

SHARE PAGE  




You need to log in to post comments