Guitar Tabs, Chords and Lyrics


Dear You (Far Away)   Zebrahead



Band: Zebrahead
Album: MFZB
Song: Dear You
Track: 15
Tabbed By: Sean Connelly

Tuning: Drop D (DADGBe)

Notes:
This isn't 100% correct, but perhaps it will motivate someone
to correct it.  I couldn't find the exact notes, but this is
pretty close.  Suggestions welcome on how to fix it.


Intro:  x 2

e|------------------|------------------|
B|------------------|------------------|
G|----7-6-7/9-66-7--|----7-6-4-4/6-2---|
D|----7-7-7/9-77-7--|----7-7-4-4/6-2---|
A|----5-4-5/7-44-5--|----5-4-2-2/4-0---|
D|--0~~-------------|--0~~-------------|


Verse:  x 2

 "Dear You......When did we...Pull up a.....I need some.."
e|-------------|-------------|-------------|-------------|
B|-------------|-------------|-------------|-------------|
G|----7-7-7-7--|----7-7-7-7--|----7-7-7-7--|----7-7-7-7--|
D|----7-7-7-7--|----7-7-7-7--|----7-7-7-7--|----7-7-7-7--|
A|----5-5-5-5--|----5-5-5-5--|----5-5-5-5--|----5-5-5-5--|
D|--0~~--------|--0~~--------|--0~~--------|--0~~--------|

 "And all and...The days go.."
e|-------------|-------------|
B|-------------|-------------|
G|----7-7-7-7--|--7~~--------|
D|----7-7-7-7--|--7~~--------|
A|----5-5-5-5--|--5~~--------|
D|--5-5-5-5-5--|--5~~--------|


Chorus (distortion):  x 2

e|--------------------------------------|
B|--------------------------------------|
G|-----------------------------7-7-7-7--|
D|--0-0-0-0--4-4-4-4--5-5-5-5--5-5-5-5--|
A|--0-0-0-0--4-4-4-4--5-5-5-5--5-5-5-5--|
D|--0-0-0-0--4-4-4-4--5-5-5-5--5-5-5-5--|


Intro  x 2

Verse  x 1

Chorus  x 2


Break:  x 3

e|--------------------------------------|
B|--------------------------------------|
G|--------------------------------------|
D|--0-0-0-0--5-5-5-5--0-0-0-0--7-7-7-7--|
A|--0-0-0-0--5-5-5-5--0-0-0-0--7-7-7-7--|
D|--0-0-0-0--5-5-5-5--0-0-0-0--7-7-7-7--|


Verse Silent

Chrous Palm Muted

Chrous  x 3


That's it!



Important: The song above is NOT stored on the Chordie server. The original song is hosted at www.xguitar.com. Chordie works as a search engine and provides on-the-fly formatting. Chordie does not index songs against artists/composers will. To remove this song please click here.

This song is displayed as text-only. Transposing and tuning is only available for chordpro-songs.

Login - add to songbook

Rating click stars to rate

Layout
Accuracy

SHARE PAGE  




You need to log in to post comments