""; ?> Livin' Libido Loco by Zebrahead - guitar chords, guitar tabs and lyrics - chordie

Livin' Libido Loco

Zebrahead

--------------------------------------

--------------------------------------
-2-------2------3-
-3-------2------5-
-4-------3------4-
-4-------4------5-
-2-------4--------
---------2--------
 BmF#mCm

Intro/Verse: Strum With Latin Feel. You can hear the pattern if you listen.

 BmF#mBmCmBmF#mBm

Chorus:

 BmCmF#mBm
The Solo:
I know i missed a few notes but they arent too major. Heres the basic
shape that Greg plays. Its really just a C# Scale. (See not at end) Play solo 2x and use
2nd ending.

--------------7---9-10-7-------------------------------------------------------
------------7------------7-10-8-8-7----7-8-10-8-8-7----8--7---8-7--------------
----------7-------------------------9---------------9-------9-----9--11--------
--------7----------------------------------------------------------------------
-------------------------------------------------------------------------------
-------------------------------------------------------------------------------

Rake

-----------------I----------9-----10---10----9---7----------------------------
-----------------I----------9------9----9----9---7----------------------------
--9-7\\6--7--6----I----------9------9----9----9---7----------------------------
---------------9-I------------------------------------------------------------
-----------------I------------------------------------------------------------
-----------------I------------------------------------------------------------

Play 2x solo ending

*The solo is based mostly around this scale. C#

E--------------------------7---9---11---------------
B---------------7--8---10---------------------------
G---------7---9-------------------------------------
D---------------------------------------------------
A---------------------------------------------------
E---------------------------------------------------

Play with this scale and throw a riff or two in during a verse.







Bm Cm F#m
variations - click chord images
Transpose chords:
Tuning:
Cool service:
View: Size:
A  A  A
Rating:
Layout:
  • Currently 2/5 Stars.
  • 1
  • 2
  • 3
  • 4
  • 5
 
Accuracy:
  • Currently 3.5/5 Stars.
  • 1
  • 2
  • 3
  • 4
  • 5
 
click stars to rate
Chordie recommends:
Learn to play guitar with video-based, online guitar lessons at JamPlay.com
Songbook:
Login to add this song to your songbook
Support the artist
Preview/buy this song
MSN Music
Why this non-profit ad?

 
login to add comments/video/corrections