Guitar Tabs, Chords and Lyrics


Hide Your Love Away  Eddie Vedder

H[G]ere I s[D]tand h[F]ead in h[G]and,
T[C]urn my face to the [F]wal[C]l.
I[G]f she's g[D]one I c[F]an't go [G]on,
F[C]eeling two feet [F]smal[C]l. [D]  [Dadd11]       [D]

E[G]veryw[D]here pe[F]ople st[G]are,
E[C]ach and every [F]da[C]y.
I[G] can [D]see them l[F]augh at m[G]e,
C F C D Cadd9 G? D
And I hear them say,

G FILL #1 C D7sus4, D7, D7sus2, D7
Hey, you've got to hide your love away!
G FILL #1 C D7sus4, D7, D7sus2, D7
Hey, you've got to hide your love away!

H[G]ow can [D]I e[F]ven t[G]ry?
I[C] can never [F]wi[C]n.
H[G]earing t[D]hem, se[F]eing th[G]em,
I[C]n the state I'm [F]in[C], [D]  [Dadd11]       [D]
H[G]ow could s[D]he s[F]ay to [G]me,
"[C]Love will find a [F]wa[C]y"?
G[G]ather 'r[D]ound [F]all you cl[G]owns,
C F C D Cadd9 G? D
Let me hear you say,


G FILL #1 C D7sus4, D7, D7sus2, D7
Hey, you've got to hide your love away!
G FILL #1 C D7sus4, D7, D7sus2, D7
Hey, you've got to hide your love away!

Harmonica Solo:
[G]  [D]  [F]  [G]  [C]  [F]  [C]  [-]  [G]  [D]  [F]  [G]  [C]  [F]  [G]         
Chord Chart

G D F C D7 Cadd9 D7sus4 D7sus2 G? Dadd11
e-| |-3--2--1--0--2----x------3------0------x-----2--|
B-| |-3--3--1--1--1----3------1------1------3-----3--|
G-| |-0--2--2--0--2----0------2------2------0-----0--|
D-| |-0--0--3--2--0----2------0------0------x-----0--|
A-| |-2--x--3--3--x----3------x------x------2-----x--|
E-| |-3--x--1--x--x----x------x------x------x-----x--|


Fill #1

e-| |---------------|
B-| |---------------|
G-| |---------------|
D-| |---------------|
A-| |----0-2--------|
E-| |--3------------|


Edited by m_vdgeest@hotmail.com
Original tab by Roymoose@aol.com

Important: The song above is NOT stored on the Chordie server. The original song is hosted at www.guitaretab.com. Chordie works as a search engine and provides on-the-fly formatting. Chordie does not index songs against artists/composers will. To remove this song please click here.

Text color:
Chord color:
Chord grids: 
Font size:    
Page size: 

C D Dadd11 F G
variations - click chord images

Login - add to songbook

Transpose chords

Tuning

Rating click stars to rate

Layout
Accuracy

SHARE PAGE  




You need to log in to post comments