Guitar Tabs, Chords and Lyrics
Update 25:10. 13:00. Site is back up running again. Songbooks are recovered. Woring on getting search back up..


Sympathy  BBMak



 
 E----------------------------|
 

 
 B----------------------------|
 

 
 G-----4----------------------|
 

 
 D-4-5---5-4-5-4-5------------|
 

 
 A-----------------5----------|
 

 
 e----------------------------|
 

[Cadd9] [D] [Em] [D]  
Verse 2
I dont want[Cadd9] my love[D] to be misun[Em]derstoo[D]d
I dont[Em] want [D]your lies burning[Cadd9] deep inside of me.
Look into my [Em]eyes,[D] I dont want[Cadd9] your sympathy.
Bridge/Outro
-about 4 times I think, but the outro is 2 times
 
 E----------------------------------------------|
 B----------------------------------------------|
 G----------------------------------------------|
 D----------------------------------------------|
 A--79102--4--7--9-102--4-------------------|
 e--57--8-0--2-5---7--8-0--2-------------------| 


Important: The song above is NOT stored on the Chordie server. The original song is hosted at chordiearchive.chordie.com. Chordie works as a search engine and provides on-the-fly formatting. Chordie does not index songs against artists'/composers' will. To remove this song please click here.

Text color:
Chord color:
Chord grids: 
Font size:    
Page size: 

Cadd9 D Em
Rate #1 of 3 versions

Jango Player

Login - add to songbook

SHARE PAGE  



You need to log in to post comments