Guitar Tabs, Chords and Lyrics
Major upgrade!! After one year development the new version of Chordie is now online! Please give feedback.


Bed of Roses  Bon Jovi



* E A D G B E
F x x 3 2 1 1
C x 2 3 0 1 0
D5 x x 0 2 3 x
A7 x 0 2 0 1 0
G 3 2 0 0 0 3
B x 5 7 7 7 5 (custom)
Repeat four times
 
 E------------------------|
 B--5-7-8--7--5--5--5-----|
 G-------------------7----|
 D------------------------|
 A------------------------|
 E------------------------|

Prog A played by another guitar:
 
 E-----------------|
 B-----------------|
 G-----------------|
 D---7-5---7-5-----|
 A-------8-----8---|
 E-----------------|

(keep playing Prog A for intro)
Prog A
sitting here wasted and wounded at this old piano
trying hard to capture the moment this morning I don't know
'cause a bott[C]le of vodka's sti[F]ll lodged in my he[D5]ad
and some blond gave me nightmares
i think that she's still in my bed
as I dream about movies they won't make of me when I'm dea[C]d
with an ironcl[F]ad fist I wake up and french kiss the morning
while some mar[F]ching band keeps its own beat in my head while we're
talking
about al[C]l of the things that I lo[F]ng to beli[D5]eve,
about lo[C]ve, the truth and what you mean to me.
and the truth is, ba[F]by, you're all th[D5]at I ne[C]ed.
Prog B
 
 E-----------------|
 B--1-3-1-0--------|
 G-----------------|
 D-----------------|
 A-----------------|
 E-----------------|

i want to l[F]ay you do[C]wn on a be[D5]d of ros[A7]es
for toni[F]te I slee[G]p on a bed of nail[B]s
i want to b[D5]e just as close a[A7]s the Hol[F]y G[D5]host i[A7]s
and l[F]ay y[C]ou do[D5]wn on a bed of roses
well I'm s[F]o far away
each step that I take is on my way hom[C]e
a king[F]'s ransom in dimes I'd give each night
to see through this payphone
still I ru[C]n out of time or it's har[F]d to get through
till the bird on the wi[C]re flies me back to you
i'll just close my ey[F]es and whisper, bab[F]y blind lo[D5]ve is tru[C]e
Prog B
CHORUS
where the hot[F]el bar hangover whiske[G]y's gone dry
the barkeeper's wig's crooked
and she's givi[D5]ng me the eye
well i might have said yea[C]h
but I laughe[C]d so hard I [C]think I died
Prog C
 
 E--3-5-3-2--------|
 B-----------------|
 G-----------------|
 D-----------------|
 A-----------------|
 E-----------------|

O[G]h yeah
 
 E-------------------------------------------------------------------|
 B-------------------------------------------------3-1-1-------------|
 G------------------------------------2-0---2-2-2v-------2-0---------|
 D--2-0---2-2-0---3-3-2-0---0---0---------3------------------3-3--3--|
 A------3-------3---------3--3-3--0----------------------------------|
 E-------------------------------------------------------------------|
 E--1-3-5-5-3-1-6-6-5--3-1-3-1-1-3-----------3-5-6-5-b6-6------------|
 B----------------------------------1-3---1--------------------------|
 G-------------------------------------------------------------------|
 D-------------------------------------------------------------------|
 A-------------------------------------------------------------------|
 E-------------------------------------------------------------------|

Prog A
now as you close your eyes know I'll be thinking about you
while my mistress she calls me to stand in her spotlight again tonite
I won't be alone but you know that don't mean I'm not lonely
i've got n[F]othing to prov[C]e
for it's yo[D5]u that I'd die to defend
Prog C
CHORUS x2
questions? mail me at dal_roti13@hotmail.com

Important: The song above is NOT stored on the Chordie server. The original song is hosted at chordiearchive.chordie.com. Chordie works as a search engine and provides on-the-fly formatting. Chordie does not index songs against artists'/composers' will. To remove this song please click here.

Text color:
Chord color:
Chord grids: 
Font size:    
Page size: 

A7 B C D5 F G
Rate #1 of 28 versions

Jango Player

Login - add to songbook

SHARE PAGE  




You need to log in to post comments