Guitar Tabs, Chords and Lyrics
Update 25:10. 13:00. Site is back up running again. Songbooks are recovered. Woring on getting search back up..


Prosessen  Kaizers Orchestra

Kan også spilles Am C G F med capo på 3.
Prosessen
(Ottesen)
Intro:
[Cm] [D#] [A#] [F]  
 
 e|----------------------------------------------------------
 B|----------------------------------------------------------
 G|-12-10---12-10-12-10------12-10---12-10-12-10-------------
 D|-----------------------------------------------13-10------
 A|-----------------------------------------------------13---
 E|----------------------------------------------------------
 e|----------------------------------------------------------
 B|----------------------------------------------------------
 G|-12-10---12-10-12-10------12-10---12-10-12-10-------------
 D|-----------------------------------------------13-10------
 A|----------------------------------------------------------
 E|---------------------------------------------------------- x2

[Cm]Velkommen te mafia rek[D#]ruttering
Her e alle under l[A#]ring
Så ta godt i mot p[F]resten
[Cm]Alle vil bli med på suks[D#]essen
så lenge det er pe[A#]nger
så lenge det er pe[F]nger i bi[Cm]ldet[D#] [A#] [F]
Me blir større og større for kver dag
Me representerer alle sosiale lag
i frå toppen av pyramiden og ner
Eg ser det på deg
Eg ser det på deg. Du er som oss
Ref:
[Cm-A#-G#] For det vil bli revo[D#]lusjon
når du ser [A#]folk konverterer til en an[F]nen religion.
Og d[G#]ei som ikkje trur på meg i[D#] dag.[A#]..
[Cm]Det[D#] er[A#] en[F] del av prosessen
Alt du har hørt om oss er sant
Me begynner å bli mange
Me har folk over heile landet
Det er ingenting som å sjå når de promenerer
Enkelte reagerer, men andre applauderer
og det er sånne som oss
Me tar dag for dag
konstruerer svar
gjer deg alt du vil ha
tenk strategi, tenk strategi(2X)
?h du er i mine hender kva enn som skjer
La meg få din stemme. Eg ber på mine kner
?h du har så mange ting i vente
Bli med på suksessen
Sei til venner og kjente
de kan bli med på prosessen

Important: The song above is NOT stored on the Chordie server. The original song is hosted at nortabs.net. Chordie works as a search engine and provides on-the-fly formatting. Chordie does not index songs against artists'/composers' will. To remove this song please click here.

Text color:
Chord color:
Chord grids: 
Font size:    
Page size: 

A# Cm D# F G#
Rate #1 of 1 versions

Jango Player

Login - add to songbook

SHARE PAGE  




You need to log in to post comments