Guitar Tabs, Chords and Lyrics
Update 25:10. 13:00. Site is back up running again. Songbooks are recovered. Woring on getting search back up..


I byen samarkand  Odd Nordstoga

Tekst/musikk: Ragnar Hovland/ Odd Nordstoga
Intro:
åpen E dur rytme med dempede strenger :p
[E] [/] [/] [E] [/] [/] [E] [/] [/] [E] [/] [/]  
 
 e|-----------|---------|---------|---1--------|
 B|-----0-3v--|(3)------|-----0-3-|-0---3p1p0--|
 G|-1-2-------|---------|-1-2-----|-----------2|x2
 D|-----------|---------|---------|------------|
 A|-----------|---------|---------|------------|
 E|-----------|---------|---------|------------|

[E]I byen Samarkand
er kv[E]elden alltid stille
[E]Der høyrest låg musikk
og v[E]indane er milde[(E7)]
I byen Sam[Am]arkand
er al[Am]dri mørkt og kaldt
der h[Dm]yrer hjartet heime
Der k[E]an du gløyme a[F]lt
Der k[E]an du gløyme a[F]lt
 
 e|-----------|---------|-----------|-------------------------|
 B|-----0-3v--|(3)------|-----0-3v--|-------------------------|
 G|-1-2-------|---------|--1-2------|-5h7p5/4h5p4/2h4p2/1v----|
 D|-----------|---------|-----------|-------------------------|
 A|-----------|---------|-----------|-------------------------|
 E|-----------|---------|-----------|-------------------------|

I byen Samarkand
sit kvinnene og stundar
i strålande palass
og i olivenlundar
Mot byen Samarkand
eg styrer mine steg
Der høyrer hjartet heime
der er det plass for meg
der e[E]r det plass for m[A]eg
i b[D]yen samark[E]aaaaaaaaaa[D]aaaaaaaaaaaaa[A]aaaaaaaaaaaaaaand
i b[D]yen samark[E]aaaaaaaaaa[D]aaaaaaaaaaaaa[Dm]aaaaaaaaaaaaaaand
(Intro)
Mellomspill
 
 Dm - E - E - F - E - E - Dm - E

I byen Samarkand
Er saknet lett å bere
Der fins det gull og silke
alt hjartet kan begjære
I byen Samarkand
det har du høyrt fortalt
der høyrer hjarta heime
der [E]kan du gløym[F]e alt x2
der [E]kan du gløyme [A]alt
Refreng x2 (avslutt første refreng med D dur)

Important: The song above is NOT stored on the Chordie server. The original song is hosted at nortabs.net. Chordie works as a search engine and provides on-the-fly formatting. Chordie does not index songs against artists'/composers' will. To remove this song please click here.

Text color:
Chord color:
Chord grids: 
Font size:    
Page size: 

A Am D Dm E F
Rate #1 of 1 versions

Login - add to songbook

SHARE PAGE  



You need to log in to post comments