Guitar Tabs, Chords and Lyrics
Update 25:10. 13:00. Site is back up running again. Songbooks are recovered. Woring on getting search back up..


Kontroll på kontinentet  Kaizers Orchestra

Ikkje min men siden ingen har lagd noe og det står man kan publisere andre sine viss man ikkje tar æra av det selv:
Forenklet
Riff (er oprindeligt beregnet til pumporgel,
så det bliver ikke helt det samme på guitar):
[Fm]  
 
 E-------------1--------------1--1-----------------
 B------1--1-----1------1--1--------1--------------
 G------1--1-----1------1--1--------1--------------
 D---3--------------3---------------1--------------
 A-------------3--------------3--------------------
 E------------------------------------------------- 

(basnedgang)
 
 E-----------------------------------------
 B-----------------------------------------
 G-----------------------------------------
 D----3---1--------------------------------
 A------------3--1-------------------------
 E------------------4---3---1-------------- 

[Fm]Den skal vær mann som kan gå med min hatt
Den skal vær kald som tar øve mi makt
Den skal ha nr 42 for å gå med mine sko
[C7]Men han må ha sin egen pistol
[Fm]for du vett kva som står i testamentet
Du vett kva som står i testamentet
At den som tar hånd om min Constanze
[C7]får min hatt, får mine sko, får mitt extravanganza
[Fm]Ta kontroll på kontinentet
Ta kontroll på kontinentet
Ta kontroll på kontinentet
[C7]Ta kontroll ta kontroll ta kontroll
[Fm]Woooaahhhh aaaaaahhh
Woooaahhhh aaaaaahhh
[C#]Woo[C7]oaahhhh aaaaaahhh
[Fm]Og eg ber om å bli godt parfymert
Eg skal lukte godt når eg først skal gå ner
Og eg har sjølv sendt ut invitasjon
[C7]Og eg har prest, eg har klokker. Det er full korrupsjon
[Fm]Men alt dette står i testamentet
Alt dette står i testamentet
At den som tar hånd om min Constanze
[C7]får min hatt, får mine sko, får mitt extravanganza
[Fm]Ta kontroll på kontinentet
Ta kontroll på kontinentet
Ta kontroll på kontinentet
[C7]Ta kontroll ta kontroll ta kontroll
[Fm]Woooaahhhh aaaaaahhh
Woooaahhhh aaaaaahhh
[C#]Woo[C7]oaahhhh aaaaaahhh
(guitarsolo - se nederst)
[Fm]Eg ser det for meg, eg ser det for meg
Eg ser det for meg, det kryper imot meg
Eg ser det for meg, eg ser det for meg
(bass nedgang)
Eg ser det for meg, det kryper imot meg
[Fm]?h, mi søster, åh mi søster
Nå vett eg kven som er tyster
?h, mi søster, åh mi søster
Eg hørte alt du sa ved mi kiste
Fader Martin, Fader Martin, eg syns dette begynner å lukte bensin
C7 (ingen akkord)
Og min Constanze ta min hatt, ta mine sko, ta mitt extravaganza
[Fm]Ta kontroll på kontinentet
Ta kontroll på kontinentet
Ta kontroll på kontinentet
[C7]Ta kontroll ta kontroll ta kontroll
[Fm]Woooaahhhh aaaaaahhh
Woooaahhhh aaaaaahhh
[C#]Woo[C7]oaahhhh aaaaaahhh
Guitarsolo:
 
 E|----------------------------9-10-----15------------8----|
 B|---------------------6--10--------------13-----9-8------|
 G|----------------5--6--------------------------------10--|
 D|----------5--6------------------------------------------|
 A|-----3--4-----------------------------------------------|
 E|--------------------------------------------------------|
 E|------------------------------------|
 B|----------9-------------------------|
 G|------------10----------1-----------|
 D|--11-10-9-------------------3-------|
 A|------------------4-3-2-------------|
 E|------------------------------1---- 

lyrik og tabulatur
Ompa Til Du Dør
Kontroll På Kontinentet
 
 E|-------------0--------------0--0-------------|
 B|------0--0-----0------0--0--------0----------|
 G|------0--0-----0------0--0--------0----------|
 D|---------------------------------------------|
 A|---------------------------------------------|
 E|---0---------0----0---------0----------------| 

Bassnedgang
 
 E|-------------------------------|
 B|-------------------------------|
 G|-------------------------------|
 D|----2---0----------------------|
 A|------------2--0---------------|
 E|------------------2---1---0----| 

[Em]Den skal vær mann som kan gå med min hatt
Den skal vær kald som tar øve mi makt
Den skal ha nr 42 for å gå med mine sko
[B7]Men han må ha sin egen pistol
[Em]for du vett kva som står i testamentet
Du vett kva som står i testamentet
At den som tar hånd om min Constanze
[B7]får min hatt, får mine sko, får mitt extravanganza
[Em]Ta kontroll på kontinentet
Ta kontroll på kontinentet
Ta kontroll på kontinentet
[B7]Ta kontroll ta kontroll ta kontroll
[Em]Woooaahhhh aaaaaahhh
Woooaahhhh aaaaaahhh
[C]Wo[B7]ooaahhhh aaaaaahhh
[Em]Og eg ber om å bli godt parfymert
Eg skal lukte godt når eg først skal gå ner
Og eg har sjølv sendt ut invitasjon
[B7]Og eg har prest, eg har klokker. Det er full korrupsjon
[Em]Men alt dette står i testamentet
Alt dette står i testamentet
At den som tar hånd om min Constanze
[C7]får min hatt, får mine sko, får mitt extravanganza
[Em]Ta kontroll på kontinentet
Ta kontroll på kontinentet
Ta kontroll på kontinentet
[B7]Ta kontroll ta kontroll ta kontroll
[Em]Woooaahhhh aaaaaahhh
Woooaahhhh aaaaaahhh
[C]Wo[B7]ooaahhhh aaaaaahhh
[Em]Eg ser det for meg, eg ser det for meg
Eg ser det for meg, det kryper imot meg
Eg ser det for meg, eg ser det for meg
(bass nedgang)
Eg ser det for meg, det kryper imot meg
[Em]?h, mi søster, åh mi søster
Nå vett eg kven som er tyster
?h, mi søster, åh mi søster
Eg hørte alt du sa ved mi kiste
Fader Martin, Fader Martin, eg syns dette begynner å lukte bensin
B7 (ingen akkord)
Og min Constanze ta min hatt, ta mine sko, ta mitt extravaganza
[Em]Ta kontroll på kontinentet
Ta kontroll på kontinentet
Ta kontroll på kontinentet
[B7]Ta kontroll ta kontroll ta kontroll
[Em]Woooaahhhh aaaaaahhh
Woooaahhhh aaaaaahhh
[C]Wo[B7]ooaahhhh aaaaaahhh

Important: The song above is NOT stored on the Chordie server. The original song is hosted at nortabs.net. Chordie works as a search engine and provides on-the-fly formatting. Chordie does not index songs against artists'/composers' will. To remove this song please click here.

Text color:
Chord color:
Chord grids: 
Font size:    
Page size: 

B7 C C# C7 Em Fm
Rate #1 of 1 versions

Login - add to songbook

SHARE PAGE  



You need to log in to post comments