Guitar Tabs, Chords and Lyrics
Major upgrade!! After one year development the new version of Chordie is now online! Please give feedback.


Ranch on Mars  Galactic Cowboys

Date: Fri, 17 Oct 1997 14:02:17 -0700 (MST)
From: Eric W Schlelein
Subject: TAB: 'Ranch on Mars' by 'Galactic Cowboys'
RANCH ON MARS--GALACTIC COWBOYS
>from 1993's "Space in Your Face" album
David Geffen Company
Lyrics and Music by Monty Colvin
Transcribed by Eric Schlelein
Email eric@u.arizona.edu
Feel free to send comments, suggestions, and insults.
This song couldn't possibly kick any more ass. I'm serious.
It could try, but I doubt it could. There's simply no more
ass to kick.
It's a fairly slow tempo,changing a little bit during the
harmonica and guitar solos, but that doesn't detract from
the total ass-whoopin this song gives you. I've given the
chord names just for the hell of it.
By the way, you have to search the CD to find the song.
It's not on the tape. It's song #21 starting at precisely
-5:04 minutes. I go to 20 and fast-forward 2:30. It's well
worth it. Enjoy.
(acoustic guitar)
 
 e--------0----- --------0----- --------0----- --------0-----
 B-----4----4--- -----3----3--- -----4----4--- -----3--------
 G--3----------- --4----------- --3----------- --4-----------
 D-------------- -------------- -------------- --------------
 A-------------- -------------- -------------- --------------
 E-------------- -------------- -------------- --------------
 e--------0----- --------0----- --------0----- --------0-----
 B-----4----4--- -----3----3--- -----4----4--- -----3--------
 G--3----------- --4----------- --3----------- --4-----------
 D-------------- -------------- -------------- --------------
 A-------------- -------------- -------------- --------------
 E-------------- -------------- -------------- -------------- 

(electric guitar (and crank it.))
[dm] [AbM] [dm] [AbM] 
 
 e--------------- -------------- -------------- --------------
 B--------------- -------------- -------------- --------------
 G--7------------ -------------- -7------------ --------------
 D--7------------ --6----------- -7------------ --6-----------
 A--5---5--5--5-- --6----------- -5---5--5--5-- --6-----------
 E--------------- --4---4--4--4- -------------- --4---4--4--4- 

[dm] [AbM] [dm] [AbM] 
 
 e--------------- -------------- -------------- --------------
 B--------------- -------------- -------------- --------------
 G--7------------ -------------- -7------------ --------------
 D--7------------ --6----------- -7------------ --6-----------
 A--5---5--5--5-- --6----------- -5---5--5--5-- --6-----------
 E--------------- --4---4--4--4- -------------- --4---4--4--4- 

 
 e----------------- -------------------
 B----------------- -------------------
 G----------------- -------------------
 D----------------- -------------------
 A-----------8--9-- -------------12\-6-
 E--0--0--0--6--7\- -0--0--0--0--10\-4-
 e----------------- -------------------
 B----------------- -------------------
 G----------------- -------------------
 D----------------- -------------------
 A-----------8--9-- -------------------
 E--0--0--0--6--7\- -1-0-2-0-3-0-4-0--- 

c#m A7 c#m A7
 
 e-------0------- --------0----- -------0------ --------0-----
 B----2-----2---- -------------- ----2-----2--- --------------
 G-1------------- -----0-----0-- -1------------ -----0-----0--
 D--------------- --2----------- -------------- --2-----------
 A--------------- -------------- -------------- --------------
 E--------------- -------------- -------------- -------------- 

c#m A7 F#M
 
 e-------0------- --------0----- -------------- --0-----------
 B----2-----2---- -------------- --------0----- -----0-----0--
 G-1------------- -----0-----0-- -----3-----3-- --------3-----
 D--------------- --2----------- --4----------- --------------
 A--------------- -------------- -------------- --------------
 E--------------- -------------- -------------- -------------- 

Different faces, different names.
Peculiar people just the same.
We are brothers in our hearts.
So we travelled far away,
Another galaxy to play,
Up in space we never part.
AM BM EM c#m AM BM CM
 
 e----- ----- ----- ----- ----- ----- --------- --------- -----
 B----- ----- ----- ----- ----- ----- --------- --------- -----
 G--2-- --4-- ----- --6-- --2-- --4-- -5------- -5------- --5--
 D--2-- --4-- --2-- --6-- --2-- --4-- -5------- -5------- --5--
 A--0-- --2-- --2-- --4-- --0-- --2-- -3--3-3-- -3--3-3-- --3--
 E----- ----- --0-- ----- ----- ----- --------- --------- ----- 

Someday we'll live among the stars,
Maybe own a ranch on Mars.
Aaaaaaaaaaaaahhh.
Come in, come in, mission control,
Give us guidance for our souls,
With eyes that scan the universe.
No more talking time to land,
You give me hope, you understand.
Our future lies beyond this Earth.
AM BM EM c#m AM BM
 
 e----- ----- ----- ----- ----- -----
 B----- ----- ----- ----- ----- -----
 G--2-- --4-- ----- --6-- --2-- --4--
 D--2-- --4-- --2-- --6-- --2-- --4--
 A--0-- --2-- --2-- --4-- --0-- --2--
 E----- ----- --0-- ----- ----- -----
 e--------- --------- --------- ---------
 B--------- --------- --------- ---------
 G-5------- -5------- --5------ --5------
 D-5------- -5------- --5------ --5------
 A-3--3-3-- -3--3-3-- --3--3-3- --3--3-3-
 E--------- --------- --------- --------- 

Someday we'll live among the stars,
Maybe own a ranch on Mars.
Aaaaaaaaaaaaahhh.
 
 e--------- --------- --------- ---------
 B--------- --------- --------- ---------
 G-7------- -7------- --7------ ---------
 D-7------- -7------- --7------ ---------
 A-5--5-5-- -5--5-5-- --5------ ---------
 E--------- --------- --------- --------- 

(speed up tempo)
 
 e--------------- ----- ----- -----
 B--------------- ----- ----- -----
 G-2---2--2------ --%-- --%-- --%-- (repeat six times under
 D-2---2--2------ ----- ----- ----- harmonica solo.)
 A-0---0--0------ ----- ----- -----
 E----------0-3-- ----- ----- -----
 e--------------- --------------
 B--------------- --------------
 G--7------------ --------------
 D--7------------ --6-----------
 A--5---5--5--5-- --6-----------
 E--------------- --4---4--4--4- 

(guitar solo over rhythm figure 1)
 
 e------------- --------------_-_-------
 B------------- ----------8--7-8-7------
 G-------7--9-- ------7-9----------9-7--
 D--7-9-------- --7-9-------------------
 A------------- ------------------------
 E------------- ------------------------
 e------------- ---------------------
 B------------- --10-8-7-8-7---7-----
 G-------7--9-- -------------9---7---
 D--7-9-------- ---------------------
 A------------- ---------------------
 E------------- ---------------------
 e------------- --------------_-_-------
 B------------- ----------8--7-8-7------
 G-------7--9-- ------7-9----------9-7--
 D--7-9-------- --7-9-------------------
 A------------- ------------------------
 E------------- ------------------------
 e------------ -----------------------------------------------
 B------------ --15-13-12-13-12----12-------------------------
 G-------7-9-- -----------------14----14-11-12-11-12----11----
 D--7-9------- --------------------------------------14----12-
 A------------ -----------------------------------------------
 E------------ -----------------------------------------------
 e------------- --------------_-_-------
 B------------- ----------8--7-8-7------
 G-------7--9-- ------7-9----------9-7--
 D--7-9-------- --7-9-------------------
 A------------- ------------------------
 E------------- ------------------------
 e------------- ---------------------
 B------------- --10-8-7-8-7---7-----
 G-------7--9-- -------------9---7---
 D--7-9-------- ---------------------
 A------------- ---------------------
 E------------- ---------------------
 e------------- --------------_-_-------
 B------------- ----------8--7-8-7------
 G-------7--9-- ------7-9----------9-7--
 D--7-9-------- --7-9-------------------
 A------------- ------------------------
 E------------- ------------------------ 

(gradually slow down to half tempo)
 
 e------------ -----------------------------------------------
 B------------ --15-13-12-13-12----12-------------------------
 G-------7-9-- -----------------14----14-11-12-11-12----11----
 D--7-9------- --------------------------------------14----12-
 A------------ -----------------------------------------------
 E------------ ----------------------------------------------- 

c#m AM c#m AM c#m F#M
 
 e----- ----- ----- ----- ----- -----
 B----- ----- ----- ----- ----- -----
 G--6-- --2-- --6-- --2-- --6-- -----
 D--6-- --2-- --6-- --2-- --6-- --4--
 A--4-- --0-- --4-- --0-- --4-- --4--
 E----- ----- ----- ----- ----- --2-- 

Different faces, different names,
Peculiar people just the same.
We are brothers in our hearts.
AM BM EM c#m AM BM
 
 e----- ----- ----- ----- ----- -----
 B----- ----- ----- ----- ----- -----
 G--2-- --4-- ----- --6-- --2-- --4--
 D--2-- --4-- --2-- --6-- --2-- --4--
 A--0-- --2-- --2-- --4-- --0-- --2--
 E----- ----- --0-- ----- ----- ----- 

[CM]  
 
 e--------- --------- --------- ---------
 B--------- --------- --------- ---------
 G-5------- -5------- --5------ --5------
 D-5------- -5------- --5------ --5------
 A-3--3-3-- -3--3-3-- --3--3-3- --3--3-3-
 E--------- --------- --------- --------- 

Someday we'll live among the stars,
Maybe own a ranch on Mars.
Aaaaaaaaaaaaahhh.
AM BM EM c#m AM BM
 
 e----- ----- ----- ----- ----- -----
 B----- ----- ----- ----- ----- -----
 G--2-- --4-- ----- --6-- --2-- --4--
 D--2-- --4-- --2-- --6-- --2-- --4--
 A--0-- --2-- --2-- --4-- --0-- --2--
 E----- ----- --0-- ----- ----- ----- 

[CM]  
 
 e--------- --------- --------- ---------
 B--------- --------- --------- ---------
 G-5------- -5------- --5------ --5------
 D-5------- -5------- --5------ --5------
 A-3--3-3-- -3--3-3-- --3--3-3- --3--3-3-
 E--------- --------- --------- --------- 

Someday we'll live among the stars,
Maybe own a ranch on Mars.
Aaaaaaaaaaaaahhh.
[DM]  
 
 e--------- --------- --------- ---------
 B--------- --------- --------- ---------
 G-7------- -7------- --7------ --7------
 D-7------- -7------- --7------ --7------
 A-5--5-5-- -5--5-5-- --5--5-5- --5--5-5-
 E--------- --------- --------- --------- 

[CM] [DM] 
 
 e--------- --------- --------- --------- -----
 B--------- --------- --------- --------- -----
 G-5------- -5------- --5------ --5------ --7--
 D-5------- -5------- --5------ --5------ --7--
 A-3--3-3-- -3--3-3-- --3--3-3- --3--3-3- --5--
 E--------- --------- --------- --------- ----- 

[AM]  
 
 e--------------- ----- ----- -----
 B--------------- ----- ----- -----
 G-2---2--2------ --%-- --%-- --%--
 D-2---2--2------ ----- ----- ----- (another harmonica
 A-0---0--0------ ----- ----- ----- solo.)
 E----------0-3-- ----- ----- ----- 

EM BM g#m BM EM
 
 e--------- --------- --0------------
 B--------- --------- --0------------
 G--9---4-- ------4-- --1------------
 D--9---4-- --6---4-- --2------------
 A--7---2-- --6---2-- --2------------
 E--------- --4------ --0------------ 

(acoustic guitar)
e--0-0--
B--0-0--
[G--1-1--]  
[D--2-2--]  
[A--2-2--]  
E--0-0--

Important: The song above is NOT stored on the Chordie server. The original song is hosted at tabfu.thudspace.net. Chordie works as a search engine and provides on-the-fly formatting. Chordie does not index songs against artists'/composers' will. To remove this song please click here.

Text color:
Chord color:
Chord grids: 
Font size:    
Page size: 

Am Abm Cm Dm
Rate #3 of 6 versions

Jango Player

Login - add to songbook

SHARE PAGE  




You need to log in to post comments