Guitar Tabs, Chords and Lyrics
Major upgrade!! After one year development the new version of Chordie is now online! Please give feedback.


Mable   Goldfinger

 
 e --0---3---5--------------
 b --0---3---5--------------
 g --1---4---6---4---5---7--
 d --2---5---7---4---5---7--
 a --2---5---5---2---3---5--
 e --0---3---5-------------- 

 


 


 intro riff: play 2x over intro progression


 


 

 
 e ------5-7----5-7----5-7-8-7-5-5-7-5----
 b --8-8-----8-8----8-8----------------8--
 g ---------------------------------------
 d ---------------------------------------
 a ---------------------------------------
 e --------------------------------------- 


Important: The song above is NOT stored on the Chordie server. The original song is hosted at tabfu.thudspace.net. Chordie works as a search engine and provides on-the-fly formatting. Chordie does not index songs against artists'/composers' will. To remove this song please click here.

This song is displayed as text-only. Transposing and tuning is only available for chordpro-songs.
Rate #6 of 7 versions

Jango Player

Login - add to songbook

SHARE PAGE  




You need to log in to post comments