Guitar Tabs, Chords and Lyrics
Major upgrade!! After one year development the new version of Chordie is now online! Please give feedback.


Reno   Headstones

 
 E :-----------------------
 B :-----------------------
 G :--------------------2--
 D :2-4-4-4-4-2-4-2-4-2-2-4
 A :2-4-4-4-4-2-4-2-4-2-0-4
 E :0-2-2-2-2-0-2-0-2-0---2 

 


 


 [Riff 1B] 


 

 
 E :-----------------------
 B :-----------------------
 G :-----------------------
 D :2-4-4-4-4-2-4-2-4-2-5-5
 A :2-4-4-4-4-2-4-2-4-2-5-5
 E :0-2-2-2-2-0-2-0-2-0-3-3 

 


 


 [Riff 2A - Bass line] [Riff 2B - Bass line] 


 

 
 E :----------------------- -----------------------
 B :----------------------- -----------------------
 G :----------------------- -----------------------
 D :----------------------- -----------------------
 A :--------------------0-- -----------------------
 E :0-2-2-2-2-0-2-0-2-0---2 0-2-2-2-2-0-2-0-2-0-3-3 

 


 


 [Riff 3 - "Well I'm going down to Reno..."] 


 

 
 E :------------------------ -------------------------
 B :------------------------ -------------------------
 G :6-6-6-6-6-6-6-6-6-4-2-2- 4-4-4-4-4-4-4-4-4-2-2-4-6
 D :6-6-6-6-6-6-6-6-6-4-2-2- 4-4-4-4-4-4-4-4-4-2-2-4-6
 A :4-4-4-4-4-4-4-4-4-2-0-0- 2-2-2-2-2-2-2-2-2-0-0-2-4
 E :------------------------ ------------------------- 

 


 End this riff in between the two bars


 


 


 [Riff 4 - Cborus] 


 

 
 E :----------------------- --------------------
 B :----------------------- --------------------
 G :7-7-7-5-5-3-5-5-5-3-3-3 -9-9-7-7-9-9-9-7-7-9
 D :7-7-7-5-5-3-5-5-5-3-3-3 -9-9-7-7-9-9-9-7-7-9
 A :5-5-5-3-3-1-3-3-3-1-1-1 -7-7-5-5-7-7-7-5-5-7
 E :----------------------- -------------------- 

 


 


 [riff 5 - tbe end] 


 

 
 E :------------------------------- -------------------------------
 B :------------------------------- -------------------------------
 G :5-5-5-5-5-5-5-5---------------- 7-7-7-7-7-7-7-7----------------
 D :5-5-5-5-5-5-5-5-5-5-5-5-5-5-5-5 7-7-7-7-7-7-7-7-7-7-7-7-7-7-7-7
 A :3-3-3-3-3-3-3-3-5-5-5-5-5-5-5-5 5-5-5-5-5-5-5-5-7-7-7-7-7-7-7-7
 E :----------------3-3-3-3-3-3-3-3 ----------------5-5-5-5-5-5-5-5
 E :-------------------------------
 B :-------------------------------
 G :5-5-5-5-5-5-5-5-5-5-5-5-5-5-5-5
 D :5-5-5-5-5-5-5-5-5-5-5-5-5-5-5-5
 A :3-3-3-3-3-3-3-3-3-3-3-3-3-3-3-3
 E :------------------------------- 


Important: The song above is NOT stored on the Chordie server. The original song is hosted at tabfu.thudspace.net. Chordie works as a search engine and provides on-the-fly formatting. Chordie does not index songs against artists'/composers' will. To remove this song please click here.

This song is displayed as text-only. Transposing and tuning is only available for chordpro-songs.
Rate #1 of 6 versions

Jango Player

Login - add to songbook

SHARE PAGE  




You need to log in to post comments