Guitar Tabs, Chords and Lyrics
Server problems seems to be fixed. Chordie has been experiencing problems with songs disappearing. These issues now seems to be fixed, but still verifying the fix. If you find anything strange, please email admin@chordie.com.


Prison Breaker  Therapy?

From Alex@roman.demon.co.uk Sun Apr 27 11:08:58 1997
Date: Sat, 26 Apr 1997 09:39:04 +0100
From: Alex Kruczkowski
To: guitar@olga.net
Subject: TAB: Prison Breaker by Therapy?
Prison Breaker by Therapy?
This is on the Pleasure Death album and the Caucasian Psychosis compilation
album.
Note: A=10, B=11, etc.
 
 ------------------------------------------------------------------------------
 bass------------ ---------------- ---------------- ---------------- x2

[B5] [Bb5] [E5] [G5Bb5] 
 
 E ---------------- ---------------- ---------------- ----------------
 B ---------------- ---------------- ---------------- ----------------
 G 4---4-44-44-4-4- 3---3-33-33-3-3- ---------------- --------------3- x3
 D 4---4-44-44-4-4- 3---3-33-33-3-3- 2---2-22-22----- 2---2-22-22-5-3-
 A 2---2-22-22-2-2- 1---1-11-11-1-1- 2---2-22-22----- 2---2-22-22-5-1-
 E ---------------- ---------------- 0---0-00-00----- 0---0-00-00-3--- 

[B5] [Bb5]  
 
 E ---------------- ----------------
 B ---------------- ----------------
 G 4---4-44-44-4-4- 3---3-33-33-3-3-
 D 4---4-44-44-4-4- 3---3-33-33-3-3-
 A 2---2-22-22-2-2- 1---1-11-11-1-1-
 E ---------------- ---------------- 

[E5]  
 
 E ---------------- ---------------- ---------------- ----------------
 B ---------------- ---------------- ---------------- ----------------
 G ---------------- ---------------- ---------------- ----------------
 D 2---2-22-22----- 2---2-22-22----- 2---2-22-22----- 2---2-22-22-----
 A 2---2-22-22----- 2---2-22-22----- 2---2-22-22----- 2---2-22-22-----
 E 0---0-00-00----- 0---0-00-00----- 0---0-00-00----- 0---0-00-00----- 

[B5] [Bb5] [E5] [G5Bb5] 
 
 E ---------------- ---------------- ---------------- ----------------
 B ---------------- ---------------- ---------------- ----------------
 G 4---4-44-44-4-4- 3---3-33-33-3-3- ---------------- --------------3- x3
 D 4---4-44-44-4-4- 3---3-33-33-3-3- 2---2-22-22----- 2---2-22-22-5-3-
 A 2---2-22-22-2-2- 1---1-11-11-1-1- 2---2-22-22----- 2---2-22-22-5-1-
 E ---------------- ---------------- 0---0-00-00----- 0---0-00-00-3--- 

She is my ball and chain
Thrills through my brain
You smother me
[B5] [Bb5]  
 
 E ---------------- ----------------
 B ---------------- ----------------
 G 4---4-44-44-4-4- 3---3-33-33-3-3-
 D 4---4-44-44-4-4- 3---3-33-33-3-3-
 A 2---2-22-22-2-2- 1---1-11-11-1-1-
 E ---------------- ---------------- 

Lost inside your pretty face
[E5] [C5] [G5] [D5] 
 
 E ---------------- ---------------- ---------------- ----------------
 B ---------------- ---------------- ---------------- ----------------
 G ---------------- 5--------------- ---------------- 7--------------- x2
 D 2--------------- 5--------------- 5--------------- 7---------------
 A 2--------------- 3--------------- 5--------------- 5---------------
 E 0--------------- ---------------- 3--------------- ---------------- 

I'm sitting on the floor just to hear your breathing
I hear you say these words every time
that you're leaving
It's just the part of you, leaves me so uncertain
You will hit my head, pop my heart, it's
split wide open
[E5]  
 
 E ---------------- ---------------- ---------------- ----------------
 B ---------------- ---------------- ---------------- ----------------
 G ---------------- ---------------- ---------------- ----------------
 D 2---2-22-22----- 2---2-22-22----- 2---2-22-22----- 2---2-22-22-----
 A 2---2-22-22----- 2---2-22-22----- 2---2-22-22----- 2---2-22-22-----
 E 0---0-00-00----- 0---0-00-00----- 0---0-00-00----- 0---0-00-00----- 

[B5] [Bb5] [E5] [G5Bb5] 
 
 E ---------------- ---------------- ---------------- ----------------
 B ---------------- ---------------- ---------------- ----------------
 G 4---4-44-44-4-4- 3---3-33-33-3-3- ---------------- --------------3- x3
 D 4---4-44-44-4-4- 3---3-33-33-3-3- 2---2-22-22----- 2---2-22-22-5-3-
 A 2---2-22-22-2-2- 1---1-11-11-1-1- 2---2-22-22----- 2---2-22-22-5-1-
 E ---------------- ---------------- 0---0-00-00----- 0---0-00-00-3--- 

I need your face
Makes only the taste
You are so gone
[B5] [Bb5]  
 
 E ---------------- ----------------
 B ---------------- ----------------
 G 4---4-44-44-4-4- 3---3-33-33-3-3-
 D 4---4-44-44-4-4- 3---3-33-33-3-3-
 A 2---2-22-22-2-2- 1---1-11-11-1-1-
 E ---------------- ---------------- 

Things are so wrong
[E5] [C5] [G5] [D5] 
 
 E ---------------- ---------------- ---------------- ----------------
 B ---------------- ---------------- ---------------- ----------------
 G ---------------- 5--------------- ---------------- 7--------------- x2
 D 2--------------- 5--------------- 5--------------- 7---------------
 A 2--------------- 3--------------- 5--------------- 5---------------
 E 0--------------- ---------------- 3--------------- ---------------- 

I'm sitting on the floor just to hear your breathing
I hear you say these words every time
that you're leaving
It's just the part of you, leaves me so uncertain
Go on, hit my head, pop my heart, it's
split wide open
 
 bass------------ ---------------- ---------------- ---------------- 

Right now, I'll be coming home with caucasian psychosis setting in
What you need and what you get is
different when you're feeling sad
 
 E ---------------- ---------------- ---------------- ----------------
 B ---------------- ---------------- ---------------- ---------------- 

G 3333333333333333 333333333333331- 3333333333333333 333333333333331- x2
 
 D ---------------- ---------------- ---------------- ----------------
 A ---------------- ---------------- ---------------- ----------------
 E ---------------- ---------------- ---------------- ---------------- 

Are you still thinking of him? it makes me feel so warm and right
Part of me still thinking, it makes me
feel so dark
When we're making love, when you and me are doing drugs
When we're making love, when you and me
are doing drugs
 
 E ---------------- ---------------- ---------------- ----------------
 B ----B---99----B- ----B---99----B- ----B---99----B- ----B---99----B-
 G 9-9-------9-8--- 9-9-------9-8--- 9-9-------9-8--- 9-9-------9-8--- x2
 D ---------------- ---------------- ---------------- ----------------
 A ---------------- ---------------- ---------------- ----------------
 E ---------------- ---------------- ---------------- ---------------- 

[E5]  
 
 E ---------------- ----------------
 B ---------------- ----------------
 G ---------------- ---------------- 

[D] [2222222222222222] [2222222222222222]  
[A]E [2222222222222222]0000000000000000 [2222222222222222]0000000000000000
 
 E ---------------- ---------------- ---------------- ----------------
 B ---------------- ---------------- ---------------- ----------------
 G ---------------- ---------------- ---------------- ----------------
 D --------5------- --------7------- --------5------- --------7-------
 A 2--------------- 5--------------- 2--------------- 5---------------
 E ---------------- ---------------- ---------------- ---------------- 

[E] [FFFFFFFFFFFFFFFF] [FFFFFFFFEEEEEEEE] [FFFFFFFFFFFFFFFF] [FFFFFFFFEEEEEEEE] 
[B] [FFFFFFFFFFFFFFFF] [FFFFFFFFEEEEEEEE] [FFFFFFFFFFFFFFFF] [FFFFFFFFEEEEEEEE] 
 
 G ---------------- ---------------- ---------------- ----------------
 D ---------------- ---------------- ---------------- ----------------
 A ---------------- ---------------- ---------------- ----------------
 E ---------------- ---------------- ---------------- ---------------- 

[E5]  
 
 E ---------------- ---------------- ---------------- ----------------
 B ---------------- ---------------- ---------------- ----------------
 G ---------------- ---------------- ---------------- ----------------
 D 2---2-22-22----- 2---2-22-22----- 2---2-22-22----- 2---2-22-22-----
 A 2---2-22-22----- 2---2-22-22----- 2---2-22-22----- 2---2-22-22-----
 E 0---0-00-00----- 0---0-00-00----- 0---0-00-00----- 0---0-00-00----- 

(outro)
 
 ------------------------------------------------------------------------------

This transcription was done by Alex Kruczkowski (alex@roman.demon.co.uk).
You can find the web's most comprehensive archive of Therapy? tablature
at .
 
 ------------------------------------------------------------------------------

Turnpike evaluation. For Turnpike information, mailto:info@turnpike.com

Important: The song above is NOT stored on the Chordie server. The original song is hosted at tabfu.thudspace.net. Chordie works as a search engine and provides on-the-fly formatting. Chordie does not index songs against artists'/composers' will. To remove this song please click here.

Text color:
Chord color:
Chord grids: 
Font size:    
Page size: 

A B B5 Bb5 C5 D D5 E E5 G5
Rate #1 of 4 versions

Jango Player

Login - add to songbook

SHARE PAGE  



You need to log in to post comments