Guitar Tabs, Chords and Lyrics
Server problems seems to be fixed. Chordie has been experiencing problems with songs disappearing. These issues now seems to be fixed, but still verifying the fix. If you find anything strange, please email admin@chordie.com.


Punishment Kiss  Therapy?

From alex@mail.demon.net Wed Apr 9 12:46:30 1997
Date: Thu, 9 Apr 1998 01:22:20 +0100 (BST)
From: Alex Kruczkowski
To: guitar@olga.net
Subject: Punishment Kiss by Therapy?
Punishment Kiss by Therapy?
This is on the Babyteeth album, the Caucasian Psychosis compilation album
and the Meat Abstract single (does ANYONE have this?!).
Note: A=10, B=11, etc.
 
 ------------------------------------------------------------------------------

Note that the lyrics I've included here are the current best guess. However,
they're totally wacky and don't make sense, so they must be wrong :-)
It's all E5 at the start. Hold, a bit of feedback, and then hit it once
every bar, whatever, although it's just bass and drums really with a little
bit of high end random stuff:
[E5]  
 
 E ---------------- ---------------- ---------------- ----------------
 B ---------------- ---------------- ---------------- ----------------
 G ---------------- ---------------- ---------------- ----------------
 D 2--------------- ---------------- ---------------- ----------------
 A 2--------------- ---------------- ---------------- ----------------
 E 0--------------- ---------------- ---------------- ---------------- 

[(bass)]  
 
 ---------------- ---------------- ---------------- ----------------
 ---------------- ---------------- ---------------- ----------------
 E ---------------- ---------------- ---------------- ----------------
 B ---------------- ---------------- ---------------- ----------------
 G ---------------- ---------------- ---------------- ----------------
 D ---------------- ---------------- ---------------- ----------------
 A 7/----A-7/----A- 7/----A-7/----A- 7/----A-7/----A- 7/----A-7/----A-
 E ---------------- ---------------- ---------------- ----------------
 E ---------------- ---------------- ---------------- ----------------
 B ---------------- ---------------- ---------------- ----------------
 G ---------------- ---------------- ---------------- ----------------
 D ---------------- ---------------- ---------------- ---------------- 

[A] [7777777777777777] [7777777777777777] [7777777777777777] [7777777777777777] 
 
 E ---------------- ---------------- ---------------- ---------------- 

Verse bit:
 
 E ---------------- ---------------- ---------------- ----------------
 B ---------------- ---------------- ---------------- ----------------
 G ---------------- ---------------- ---------------- ---------------- x3
 D ---------------- ---------------- ---------------- ----------------
 A 7-7-A9--7-777A9- 7-7-A9--7-777A9- 7-7-A9--7-777A9- 7-7-A9--7-777A9-
 E ---------------- ---------------- ---------------- ---------------- 

We're letting the canned bull queen when someone went they came back clean
Little bits they find inside came back with more than a stare
Chop and change the shape of the lies, hard fought battle with the whipper
knife
They gave way to the Heaven and to Hell, only got the hole in the box instead
Chorus -- more E5s:
[E5]  
 
 E ---------------- ---------------- ---------------- ----------------
 B ---------------- ---------------- ---------------- ----------------
 G ---------------- ---------------- ---------------- ---------------- x2
 D 2--------------- ---------------- 2--------------- ----------------
 A 2--------------- ---------------- 2--------------- ----------------
 E 0--------------- ---------------- 0--------------- ---------------- 

Every day I feel sad, every day drains into the next
Every day I feel sad, every day drains
into the next
Every day I feel sad, every day drains into the next
Every day I feel sad, every day drains
into the next
[B5]  
 
 E ---------------- ---------------- ---------------- ----------------
 B ---------------- ---------------- ---------------- ----------------
 G 4---4---4---4--- 4---4---4---4--- 4---4---4---4--- 4---4---4---4---
 D 4---4---4---4--- 4---4---4---4--- 4---4---4---4--- 4---4---4---4---
 A 2---2---2---2--- 2---2---2---2--- 2---2---2---2--- 2---2---2---2---
 E ---------------- ---------------- ---------------- ---------------- 

Oh, what can we do
What have I done to deserve this
Every day, the night into day
I'm taking the hits of the
 
 E ---------------- ---------------- ---------------- ----------------
 B ---------------- ---------------- ---------------- ----------------
 G C-C-C-B---C---B- C-C-C-B---C---B- C-C-C-B---C---B- C-C-C-B---C---B-
 D ---------------- ---------------- ---------------- ----------------
 A ---------------- ---------------- ---------------- ----------------
 E ---------------- ---------------- ---------------- ---------------- 

Punishment kiss
 
 E ---------------- ---------------- ---------------- ----------------
 B ---------------- ---------------- ---------------- ----------------
 G ---------------- ---------------- ---------------- ---------------- x3
 D ---------------- ---------------- ---------------- ----------------
 A 7-7-A9--7-777A9- 7-7-A9--7-777A9- 7-7-A9--7-777A9- 7-7-A9--7-777A9-
 E ---------------- ---------------- ---------------- ---------------- 

We'll let the canned bull queen when someone went they came back clean
Little bits they find inside came back with more than a stare
Chop and change the shape of the lies, hard fought battle with the whipper
knife
They gave way to the Heaven and to Hell, only got the hole in the box instead
[E5]  
 
 E ---------------- ---------------- ---------------- ----------------
 B ---------------- ---------------- ---------------- ----------------
 G ---------------- ---------------- ---------------- ---------------- x2
 D 2--------------- ---------------- 2--------------- ----------------
 A 2--------------- ---------------- 2--------------- ----------------
 E 0--------------- ---------------- 0--------------- ---------------- 

Every day I feel sad, every day drains into the next
Every day I feel sad, every day drains
into the next
Every day I feel sad, every day drains into the next
Every day I feel sad, every day drains
into the next
[B5]  
 
 E ---------------- ---------------- ---------------- ----------------
 B ---------------- ---------------- ---------------- ----------------
 G 4---4---4---4--- 4---4---4---4--- 4---4---4---4--- 4---4---4---4---
 D 4---4---4---4--- 4---4---4---4--- 4---4---4---4--- 4---4---4---4---
 A 2---2---2---2--- 2---2---2---2--- 2---2---2---2--- 2---2---2---2---
 E ---------------- ---------------- ---------------- ---------------- 

Oh, what can we do
What have I done to deserve this
Every day, the night into day
I'm taking the hits of the
 
 E ---------------- ---------------- ---------------- ----------------
 B ---------------- ---------------- ---------------- ----------------
 G C-C-C-B---C---B- C-C-C-B---C---B- C-C-C-B---C---B- C-C-C-B---C---B-
 D ---------------- ---------------- ---------------- ----------------
 A ---------------- ---------------- ---------------- ----------------
 E ---------------- ---------------- ---------------- ---------------- 

Punishment kiss
[B5]  
 
 E ---------------- ---------------- ---------------- ----------------
 B ---------------- ---------------- ---------------- ----------------
 G 4---4---4---4--- 4---4---4---4--- 4---4---4---4--- 4---4---4---4---
 D 4---4---4---4--- 4---4---4---4--- 4---4---4---4--- 4---4---4---4---
 A 2---2---2---2--- 2---2---2---2--- 2---2---2---2--- 2---2---2---2---
 E ---------------- ---------------- ---------------- ---------------- 

Oh, what can we do
What have I done to deserve this
Every day, the night into day
I'm taking the hits of the
 
 E ---------------- ---------------- ---------------- ----------------
 B ---------------- ---------------- ---------------- ----------------
 G C-C-C-B---C---B- C-C-C-B---C---B- C-C-C-B---C---B- C-C-C-B---C---B-
 D ---------------- ---------------- ---------------- ----------------
 A ---------------- ---------------- ---------------- ----------------
 E ---------------- ---------------- ---------------- ---------------- 

Punishment kiss Punishment kiss Punishment kiss Punishment kiss
[D5] [A5] [E5] 
 
 E ---------------- ---------------- ---------------- ----------------
 B ---------------- ---------------- ---------------- ----------------
 G 7--------------- ---------------- ---------------- ---------------- x2
 D 7--------------- 7--------------- 2--------------- ----------------
 A 5--------------- 7--------------- 2--------------- ----------------
 E ---------------- 5--------------- 0--------------- ----------------
 E C-C-FE-C-CCCF-E- C-C-FE-C-CCCF-E- C-C-FE-C-CCCF-E- C-C-FE-C-CCCF-E-
 B ---------------- ---------------- ---------------- ----------------
 G ---------------- ---------------- ---------------- ----------------
 D ---------------- ---------------- ---------------- ----------------
 A ---------------- ---------------- ---------------- ----------------
 E ---------------- ---------------- ---------------- ----------------
 E C-C-FE-C-CCCF-E- C-C-FE-C-CCCF-E- C-C-FE-C-CCCF-E- C-C-FE-C-CCCF\--
 B ---------------- ---------------- ---------------- ----------------
 G ---------------- ---------------- ---------------- ----------------
 D ---------------- ---------------- ---------------- ----------------
 A ---------------- ---------------- ---------------- ----------------
 E ---------------- ---------------- ---------------- ---------------- 

[E5]  
 
 E ---------------- ---------------- ---------------- ----------------
 B ---------------- ---------------- ---------------- ----------------
 G ---------------- ---------------- ---------------- ----------------
 D ---------------- ---------------- ---------------- ----------------
 A 2-2-2-2-2-2-2-2- 2-2-2-2-2-2-2-2- 2-2-2-2-2-2-2-2- 2-2-2-2-2-2-2-2-
 E 0-0-0-0-0-0-0-0- 0-0-0-0-0-0-0-0- 0-0-0-0-0-0-0-0- 0-0-0-0-0-0-0-0- 

. . . . . . . . . . . . . . . . . . . . . . . . . . . . . . . .
[E5]  
 
 E ---------------- ---------------- ---------------- ----------------
 B ---------------- ---------------- ---------------- ----------------
 G ---------------- ---------------- ---------------- ----------------
 D 2--------------- ---------------- ---------------- ----------------
 A 2--------------- ---------------- ---------------- ----------------
 E 0--------------- ---------------- ---------------- ---------------- 

The bass bit at the end:
 
 G ---------------- ---------------- ---------------- ----------------
 D ---------------- ---------------- ---------------- ----------------
 A ---------------- ---------------- ---------------- ----------------
 E 0-0-32-0-000332- 0-0-32-0-000332- 0-0-32-0-0003-2- 0-0-32--0-------
 ------------------------------------------------------------------------------

This transcription was done by Alex Kruczkowski (alex@roman.demon.co.uk).
You can find the web's most comprehensive archive of Therapy? tablature
at .
 
 ------------------------------------------------------------------------------


Important: The song above is NOT stored on the Chordie server. The original song is hosted at tabfu.thudspace.net. Chordie works as a search engine and provides on-the-fly formatting. Chordie does not index songs against artists'/composers' will. To remove this song please click here.

Text color:
Chord color:
Chord grids: 
Font size:    
Page size: 

A A5 B5 D5 E5
Rate #2 of 4 versions

Login - add to songbook

SHARE PAGE  



You need to log in to post comments