Guitar Tabs, Chords and Lyrics
Server problems seems to be fixed. Chordie has been experiencing problems with songs disappearing. These issues now seems to be fixed, but still verifying the fix. If you find anything strange, please email admin@chordie.com.


Trigger Inside  Therapy?

Trigger Inside
by
THERAPY?
Intro.
[mm]EEE [mm]EEE [mmmmmmm]FFFFFFF X3
[mm] [mm]  
[EEE] [EEE] [AA#BC]  
Riff A End Riff A
 
 --------------------------------
 --------------------------------
 -------------------------------- _ X3
 -2-2---2-2---2-2---2-2----------
 -2-2---2-2---2-2---2-2---5-5-0--
 -0-0-3-0-0-3-0-0-3-0-0-3--------
 --------------------------------
 --------------------------------
 --------------------------------
 -2-2---2-2---2-2---2-2----------
 -2-2---2-2---2-2---2-2---5-----5
 -0-0-3-0-0-3-0-0-3-0-0-3---0-3-- 

Verse.
 
 --5-5-5-x-5-5-5-x-5-5-5-x--4---- d

(lonely) (lonely)
B\A B\A
Repeat once from Riff A onwards
G\A G\A G\A G A A# B C
Riff A [-]
Riff B End of Riff B
 
 --------------------------------
 --------------------------------
 -------------------------------- - X2
 -2-2---2-2---2-2---2-2----------
 -2-2---2-2---2-2---2-2---3-3-3-3
 -0-0-3-0-0-3-0-0-3-0-0-3-------- 

[A]  
[-]  
harmonics
 
 E --------12--
 -----12-----

[A]  
 
 ---2-3-2-3-2-3-2-3-2-3-
 -0--------------------- - X2
 -----------------------
 ---2-3-2-3--
 -0---------- A A# B C
 ------------ 

[-] 
[mm] [mm] [mm]  
[EEE] [EEE] [EEE] [CD]  
[mm] [mm] [mm]  
[EEE]mm [EEE]mm [EEE]mm [GF#] _ X2
[EEE] [EEE] [EEE] [CD]  
Harmonic Bit (I think its harmonics about the 5th fret
but I'm not to sure exactly what it is)
[-] 
Riff A
Riff B
Riff A
[AC]  
 
 -------10-----
 ----10----10--
 --9-----------
 -------------- X16
 --------------
 -------------- 


Important: The song above is NOT stored on the Chordie server. The original song is hosted at tabfu.thudspace.net. Chordie works as a search engine and provides on-the-fly formatting. Chordie does not index songs against artists'/composers' will. To remove this song please click here.

Text color:
Chord color:
Chord grids: 
Font size:    
Page size: 

A
Rate #1 of 5 versions

Jango Player

Login - add to songbook

SHARE PAGE  




You need to log in to post comments