Guitar Tabs, Chords and Lyrics
Major upgrade!! After one year development the new version of Chordie is now online! Please give feedback.


Galleywinter  Pat Green

Part 1/Intro:
[D] [G] [Cadd9] [G]  
 
 e----------2----------------------3---------------------3------------------------3----------
 B---------------3----3----------------3-----3---------------3-----3----------------3-----3
 G------------------2----------------------0---------------------0-----------------------0---
 D----0---------------------------------------------------------------------------------------
 A------------------------0h2------------------0h3--------------------0h2----------------
 E---------------------------------------------------------------------------------------------

VERSE 1:
[D]When I was a kid I had a roc[G]kin' horse named [Cadd9]Ranger[G]
[D]Out on the fr[G]ont porch we would [Cadd9]ride, we would rid[G]e
[D]Little red cow[G]boy boots,[Cadd9] Little red cow[G]boy hat
[D]And a pistol that shoots str[G]aight as an e[Cadd9]agle flies[G]
 
 D--G--Cadd9--G x2

[D]Mamma would come o[G]ut say it's [Cadd9]time to come in[G]
[D]I ain't going n[G]owhere mamma and[Cadd9] don't ask me aga[G]in
[D]I was just an ou[G]tlaw r[Cadd9]iding on the tra[G]il
[D]Knocking over sta[G]gecoaches and rid[Cadd9]ing on the rai[G]ls[Cadd9]
CHORUS:
I'm gone to Ga[D]llywi[G]nter[Cadd9] [G]
[D]Place where all the cow[G]boys ride
[Cadd9]Place where all the outla[G]ws hide
[D]Away from the men who want to
[G]Kill them for what they[Cadd9]'ve done[G]
I'm gone to[D] Gall[G]ywin[Cadd9]ter[G]
I'm gone [D]to Ga[G]llyw[Cadd9]inter[G]
 
 D--G--Cadd9--G x4

VERSE 2:
[D]My sister would come out an[G]d say
[Cadd9]"Where you going anyw[G]ay?"
[D]I'm going to Gally[G]winter and there ain't [Cadd9]no girls allo[G]wed
[D]I guess things are dif[G]ferent now ti[Cadd9]mes have chang[G]ed
[D]A girl is nice to ha[G]ve with you while you're rid[Cadd9]ing on the ra[G]nge
[D]She can cook your break[G]fast and ta[Cadd9]lk to you at nig[G]ht
[D]You can argue about thi[G]ngs you never thought you'd arg[Cadd9]ue about in
Your whole li[G]fe
[D]Twenty five years ol[G]der and Ran[Cadd9]ger ain't here no m[G]ore
[D]Been replaced by a 19[G]58 mod[Cadd9]el T-bird F[G]ord
[D]Baby said where you wa[G]nt to go I said
[Cadd9]I don't know maybe Mex[G]ico
[D]Anywhere that te[G]quila flows is alr[Cadd9]ight with m[G]e[Cadd9]
CHORUS 2:
I'm gone to Ga[D]llywi[G]nter[Cadd9] [G]
[D]Place where all the out[G]laws hide
[Cadd9]Place where all them cowg[G]irls hide
[D]Nope, then
[G] [Cadd9] [G]  
 
 its alright with me----------

I'm gone to[D] Gall[G]ywin[Cadd9]ter[G]
I'm gone [D]to Ga[G]llyw[Cadd9]inter[G]
 
 D--G--Cadd9--G x4

Part 1/Intro x4
Short Ending:
 
 e-----------------7-------2----
 B--------------7--------- 3----
 G------------7------------2-----
 D--7-7-7-7-------------------
 A-----------------------------
 E--------------------------------


Important: The song above is NOT stored on the Chordie server. The original song is hosted at www.allcountrytabs.com. Chordie works as a search engine and provides on-the-fly formatting. Chordie does not index songs against artists'/composers' will. To remove this song please click here.

Text color:
Chord color:
Chord grids: 
Font size:    
Page size: 

Cadd9 D G
Rate #1 of 5 versions

Jango Player

Login - add to songbook

SHARE PAGE  




You need to log in to post comments