Guitar Tabs, Chords and Lyrics
Major upgrade!! After one year development the new version of Chordie is now online! Please give feedback.


Chattahoochie  Alan Jackson

INTRO:
 
 e--------------------------------------
 B--------------------------------------
 G-------------------------------------- X2
 D--------------------------------------
 A---2h3-3-3--2h3-3-3--2h3--------------
 E--------------------------------------
 e--------------------------------------------
 B--------------------------------------------
 G--------------------------------------------
 D--------------------------------------------
 A-2h3-3-3-2h3-3-3-2h3-3-3--2h3-3-3-----------
 E----------------------------------6h5h3-5-3-
 e--------------------------------------------
 B--------------------------------------------
 G--------------------------------------------
 D--------------------------------------5-7-5-
 A-2h3-3-3-2h3-3-3-2h3-3-3--2h3-3-3-5/7-------
 E--------------------------------------------
 e--------------------------------------------
 B--------------------------------------------
 G--------------------------------------------
 D--------------------------------------------
 A-2h3-3-3-2h3-3-3-2h3-3-3-----5b6r5-3--------
 E-------------------------5-3----------------
 e--------------------------------------------
 B--------------------------------------------
 G--------------------------------------------
 D--------------------------------------5-7-5-
 A-2h3-3-3-2h3-3-3-2h3-3-3--2h3-3-3-5/7-------
 E--------------------------------------------
 e--------------------------------------------
 B--------------------------------------------
 G-5p0----------------------------------------
 D-----7p5-5h7---5h7--------------------------
 A-------------7-----pb6r5-3------------------
 E--------------------------------------------

[C]Way down yonder on the Chattahoochee
Its get hotter than a [G]Hoochie-Kooc[C]hie
[C]We laid rubber on the Georgia asphalt
[C]We got a little crazy but we [G]never got [C]caught
[F]Down by the river on a Friday night
[C]A few Miller cans in the pale moonlight
[F]Talkin' 'bout cars and dreamin' 'bout women
[D7]Never had a plan, just alivin' for the m[G]inute
Chorus
[C]Way down yonder on the Chattahoochee
never knew how much that muddy water [G]meant to me
[C]But I learned how to swim and I learned who I was
A lot 'bout living and a [G]little 'bout love
We fogged up the window in my ole chevy
I was willin but she wasn't ready'
So I settled for a burger and a grape snow cone
I dropped her off early but I didn't go home
Down by the river on a Friday night
A few Miller can in the pale moonlight
Talkin' 'bout cars and dreamin' 'bout women
Never had a plan, just alivin' for the minute
Chorus
(Thanks to tyler caines for corrections)

Important: The song above is NOT stored on the Chordie server. The original song is hosted at www.allcountrytabs.com. Chordie works as a search engine and provides on-the-fly formatting. Chordie does not index songs against artists'/composers' will. To remove this song please click here.

Text color:
Chord color:
Chord grids: 
Font size:    
Page size: 

C D7 F G
Rate #1 of 6 versions

Jango Player

Login - add to songbook

SHARE PAGE  




You need to log in to post comments