Guitar Tabs, Chords and Lyrics
Server problems seems to be fixed. Chordie has been experiencing problems with songs disappearing. These issues now seems to be fixed, but still verifying the fix. If you find anything strange, please email admin@chordie.com.


Good Time  Alan Jackson

 
 -------------------------------------------------------------------------------

GOOD TIME - Alan Jackson
 
 -------------------------------------------------------------------------------

Tabbed by: Barry Miles
Alan Jackson is the only redneck left in country.
x4, last time end with
 
 e -------- ------------------------------------- ------------------
 B -------- ------------------------------------- ------------------
 G -------- ------------------------------------- ------------------
 D -------- -----0--0----0-0-----0-0------------- ------------------
 A -------- -4b------4b------4b------2h1h0---0--- -2h0---0---0------
 E -0-2b-0- -------------------------------3b--3- -----3-------0---- 

Verse:
[E]Work, work all week long
Punchin’ that clock from dusk till dawn.
Countin’ the days till Friday night
That’s when all the conditions are right.
For a [A]good time[D] [A]
I need a good [E]time.
Chorus:
Yea, I’ve [B7]been workin’ all week
And I’m tired and I don’t wanna [D]sleep
I wanna have [A]fun
It’s time for a [E]good time
(throw the intro riff in here once)
Verse:
I cashed my check, cleaned my truck
Put on my hat, forgot about work
Sun goin’ down, head across town
Pick up my baby and turn it around
Good time,
Ah, I need a good time
Chorus
First guitar solo:
 
 e --------------------------------9--12--12--12--12--------7---7---7---7-----
 B ---------------------------------------------------------------------------
 G -------------------4------9-11b----11b-11b-11b-11b--7b----7b--7b--7b--7b---
 D -------------2-4/6----/11--------------------------------------------------
 A -------2-2/4---------------------------------------------------------------
 E -0-2/4---------------------------------------------------------------------
 e -7-------------------------------------------------------------------------
 B ------5-------------------------------2/3-3-3-3-2/3-3-3-3-2/3-3-3-3--------
 G ---7b---4-0-0-0-----2p0---2b-2b---0---3/4-4-4-4-3/4-4-4-4-3/4-4-4-4p2p0----
 D ----------------2-0-----0-----------2----------------------------------2-0-
 A ---------------------------------------------------------------------------
 E ---------------------------------------------------------------------------
 e -------------------------------------3-3-----------------------------------
 B -----------------10-----------8-8----3-3-----------------------------------
 G ----4-----4---4-----9b-7------7-7-2b-----2b-0-2----------------------------
 D ------7------------------9b-7-------------------0-2-0----------2-----------
 A -/6-----6---6-----------------------------------------2-1-0----------------
 E ------------------------------------------------------------3b---0--------- 

Verse:
Pig in the ground, beer on ice
Just like ole Hank taught us about
Singin’ along, Bocephus songs
Rowdy friends all night long
Good time
Lord, we’re having a good time,
Chorus
Second Guitar Solo (workin on it)
Verse:
Heel toe dosey doe
Scootin’ our boots, swingin’ doors
B & D Kix and Dunn
Honkin’ tonk heaven, Double shotgun
Good time,
Lord, we’re havin’ a good time
Chorus
Verse (quiet):
Shot of Tequila, beer on tap
Sweet southern woman set on my lap
G with an O, O with a D
T with an I and an M and an E
And a good time
Shhheww, good time
Chorus
Fiddle Solo
Bridge: vamp on E then
[E]A Shot of Tequila.
Beer on tap.
A good looking woman.
To set on my lap.
A G with an O, an O with a D
A T with an I an M with an E
That spells [A]good time[D] [A]
A [E]good time
Chorus
Harmonica Solo
Verse:
Twelve o’clock, two o’clock three o’clock four
Five o’clock we know were that’s gonna go
Closing the door, shuttin’ ‘em down
Head for that Waffle House way across town
Good time
Oh, we’re havin’ a good time.
Chorus x3
Intro Riff:
Oh, yea, a good time.
I need a good time.
Yea, a good time.
(Thanks to Barry Miles for tabs)

Important: The song above is NOT stored on the Chordie server. The original song is hosted at www.allcountrytabs.com. Chordie works as a search engine and provides on-the-fly formatting. Chordie does not index songs against artists'/composers' will. To remove this song please click here.

Text color:
Chord color:
Chord grids: 
Font size:    
Page size: 

A B7 D E
Rate #1 of 4 versions

Jango Player

Login - add to songbook

SHARE PAGE  




You need to log in to post comments