Guitar Tabs, Chords and Lyrics
Update 25:10. 13:00. Site is back up running again. Songbooks are recovered. Woring on getting search back up..


Your Arms Feel Like Home  3 Doors Down

 
 -------------------------------------------------------------------------

YOUR ARMS FEEL LIKE HOME ‚?? 3 Doors Down
 
 -------------------------------------------------------------------------

>>This is one of those easy-to-play-along 3 Doors Down songs. The verses
are picked, more or less according to what I put in the intro here.
Try it out.<<
Standard tuning
INTRO (also 1st part of verse)
[C] [G/B] [Am]  
 
 e|-------------------------0-------------------------------------------|
 B|-1-----1-------3-------3---3-0-1-----1-------1-----1-----------------|
 G|---0-----0-------0---0-----------2-----2---2---2-----2---2-----------|
 D|-----2-----2-------0---------------2-----2-------2-----2-------------|
 A|-3-----------0-2---------------0-------------0-----------------------|
 E|---------------------------------------------------------------------|

VERSE1
I [C]think I've walked too [G/B]close to love
And [Am]now I'm falling in
[C]There‚??s so man[G/B]y things this wear[Am]y soul can't take
[F]Maybe you just [G]caught me by su[Asus2]rprise
The [F]first time that I [G]looked into your [Am]eyes[Asus] [Am]
CHORUS
[F]There's a life in[Am]side of me that [C]I can feel a[G]gain
[F]It's the only t[Am]hing that takes me [C]where I've never [G]been
[F]I don't care if [Am]I lost every[C]thing that I have [G]known
[F]It don't matter [Am]where I lay my [C]head tonight
G C (picking like in intro) G/B Am
Your arms feel like home
Feel like [C]home[G/B] [Am]
VERSE2
[C]This life aint the [G/B]fairy tale we [Am]both thought it would be
But [C]I can see your [G/B]smiling face as it's [Am]staring back at me
[F]I know we both [G]see these changes [Asus2]now
[F]I know we both [G]understand some[Am]how[Asus2] [Am]
CHORUS (same chords as above)
There's a life inside of me that I can feel again
It's the only thing that takes me where I've never been
I don't care if I lost everything that I have known
It don't matter where I lay my head tonight
Your arms feel like home
They feel like home
(hold on, you're home to me)
(Repeat chorus)
=====================================================================

Important: The song above is NOT stored on the Chordie server. The original song is hosted at www.azchords.com. Chordie works as a search engine and provides on-the-fly formatting. Chordie does not index songs against artists'/composers' will. To remove this song please click here.

Text color:
Chord color:
Chord grids: 
Font size:    
Page size: 

Am Asus Asus2 C F G G/B
Rate #1 of 1 versions

Login - add to songbook

SHARE PAGE  



You need to log in to post comments