Guitar Tabs, Chords and Lyrics
Major upgrade!! After one year development the new version of Chordie is now online! Please give feedback.


Thank God for the Radio   Alan Jackson

 
 E-[R1]------------|---pb------r----|-[R3]--------|-[4]---------------------|
 B-----------------|---(3)(3)(3)2~--|-------------|-------------------------|
 G-----------------|-2--------------|-0-----------|-------------------------|
 D-------0-0-2/4~--|----------------|----b-r------|-x-2h4p2-0---------------|
 A---0h2-----------|----------------|---4(5)4--0--|-0---------0-------------|
 E-0---------------|-[R2]-----------|-------------|-------------------------|
 E-[R5]-----------|---[R6]-------------|-[R7]-----------|-[R8]--------------|
 B----------------|-2--b-r-------------|----------------|--------7----------|
 G----------------|---4(6)4-2-----2----|-2----2--2------|-7-9(11)-(11)9-7~--|
 D-0--------------|-----------2-4------|-2(3)(3)(3)2----|----b-------r------|
 A---2-0--b-r-----|-----------------0--|--bh------r--0--|-------------------|
 E-------2(3)2-0--|--------------------|----------------|-------------------|

 


 


 Solo:


 

 
 E--------------------------------------------------------------------------|
 B--------------------------------------------------------------------------|
 G-----------------------b-r---------------------------------7--b-r---------|
 D-----0-2-0-2/4-4~-----4(5)4-2-0-----------b-r--------2-4/6---4(6)4-2------|
 A-0-2----------------------------4-2-0-2--2(3)2-0---2----------------------|
 E--------------------0-----------------------------------------------------|
 E-------xx-----------------------------------------------------------------|
 B-x--bh-33--r-----5--------------------------------------------------------|
 G-0-2(4)--(4)2-0---4(6)4-2-------------------------------------------------|
 D-------------------b-r----4-2-0---0---0---0-------------------------------|
 A--------------------------------2-------2----b-r--------------------------|
 E--------------------------------------------2(3)2-0-----------------------|


Important: The song above is NOT stored on the Chordie server. The original song is hosted at www.azchords.com. Chordie works as a search engine and provides on-the-fly formatting. Chordie does not index songs against artists'/composers' will. To remove this song please click here.

This song is displayed as text-only. Transposing and tuning is only available for chordpro-songs.
Rate #1 of 5 versions

Login - add to songbook

SHARE PAGE  




You need to log in to post comments