Guitar Tabs, Chords and Lyrics
Server problems seems to be fixed. Chordie has been experiencing problems with songs disappearing. These issues now seems to be fixed, but still verifying the fix. If you find anything strange, please email admin@chordie.com.


Rising of the Tide  Blackfield

[Verse 1] 
[C#m]Any day can be the [E]last day in your life
So [B]make it an unforgettable [Bm7]time
[C#m]Another sleepless night, and [E]anxiety attacks
The[B] doctor said you need som[Bm7]e rest
[Cborus 1] 
But you're [B]always on the run, tracing [E]after a place to hide
You were bo[F#m]rn to your mum's shaking [G#]hands[G#7]
The [B]wolves are out tonight, and they'r[E]e looking for a fight
As they [F#m]run at the speed of [G#]light[G#7]
It seems you're home a[A]gain
[Bridge] 
[(A)] [C#m] [A] [F#m]  
 
 E|----------------------------|---------------------------------------|
 B|-------9b10r9---------------|-------9b10r9--------------------------|
 G|-----9--------9-------------|-----9--------9------------------------|
 D|--11------------11-9-9h11~--|--11------------11-9-9h11~--9h11p9-7~--|
 A|----------------------------|---------------------------------------|
 E|----------------------------|---------------------------------------|

[Verse 2] 
[C#m]Don't forget to breathe, while [E]time is running out
On the [B]clock tower, the window [Bm7]sky
[C#m]Any day can be the [E]last day in your life
So [B]make it an unforgettable [Bm7]time
[Cborus 2] 
B * E
Around me blinking lights form a giant neon sign
You were [F#m]born in the wrong wrong [G#]year[G#7]
B * E
Your soul is freezing ice, but still they're asking for a slice
You had to [F#m]feed those monster [G#]hearts[G#7]
When you're home a[A]gain
[Bridge] 
[(A)] [C#m] [A] [F#m]  
 
 E|----------------------------|---------------------------------------|
 B|-------9b10r9---------------|-------9b10r9--------------------------|
 G|-----9--------9-------------|-----9--------9------------------------|
 D|--11------------11-9-9h11~--|--11------------11-9-9h11~--9h11p9-7~--|
 A|----------------------------|---------------------------------------|
 E|----------------------------|---------------------------------------|

[Cborus 3] 
B * E
You feel you had enough, it's like the rising of the tide
You're a [F#m]shadow just passing [G#]by[G#7]
B * E
The wolves are out tonight and they're looking for a fight
And they [F#m]run at the speed of [G#]light[G#7]
It seems you're home a[C#m]gain
[Ending] 
[(C#m)] [F#m] [B7] [E] [A] [F#m7] [G#7] [C#m]  
 
 E|------------------------------------------------------------------------|
 B|--14-12-14------------12-10-12------------10-9-10-----------------------|
 G|-----------13-13/14~-----------11-11/13~----------9-9/11~-9-8-----------|
 D|--------------------------------------------------------------11-9-11~--| x4
 A|------------------------------------------------------------------------|
 E|------------------------------------------------------------------------| 


Important: The song above is NOT stored on the Chordie server. The original song is hosted at www.azchords.com. Chordie works as a search engine and provides on-the-fly formatting. Chordie does not index songs against artists'/composers' will. To remove this song please click here.

Text color:
Chord color:
Chord grids: 
Font size:    
Page size: 

A B B7 Bm7 C#m E F#m F#m7 G# G#7
Rate #1 of 4 versions

Login - add to songbook

SHARE PAGE  



You need to log in to post comments