Guitar Tabs, Chords and Lyrics
Major upgrade!! After one year development the new version of Chordie is now online! Please give feedback.


Let It Rock  Bon Jovi

This is a great song with a legend guitar solo. I put in the piano as well
because its such a big part in the song. Enjoy!!
\3.5___/
 
 |------------------:------------:------------:
 |------------------:------------:------------:
 |-7-----(7)--------:-(7)--------:-(7)--------:
 |-7-----(7)--------:-(7)--------:-(7)--------:
 |-5-----(5)--------:-(5)--------:-(5)--------:
 |------------------:------------:------------:

|
| Gtr II (keyboard)
 
 |------------------:------------:------------:
 |------------------:------------:------------:
 |------------------:------------:------------:
 |------------------:------------:------------:
 |------------------:------------:------------:
 |------------------:------------:------------:
 |----------------------------------------|
 |----------------------------------------|
 |-(7)------------------------------------|
 |-(7)------------------------------------|
 |-(5)------------------------------------|
 |----------------------------------------|

|
 
 |-------0-1-3-5-7-8-10--(10)-8-5-8-------|
 |--1--3----------------------------8-----|
 |----------------------------------------|
 |----------------------------------------|
 |----------------------------------------|
 |----------------------------------------|
 |----------------------------------------:-----------------------------:
 |----------------------------------------:-----------------------------:
 |-(7)------------------------------------:-(7)-------------------------:
 |-(7)------------------------------------:-(7)-------------------------:
 |-(5)------------------------------------:-(5)-------------------------:
 |----------------------------------------:-----------------------------:

|
 
 |-----------0-1-3-5-7-8-10--(10)-8-5-8---:--------------0-1-3-5-7-8-10-:
 |-------1-3----------------------------8-:----------1-3----------------:
 |----------------------------------------:-----------------------------:
 |----------------------------------------:-----------------------------:
 |----------------------------------------:-----------------------------:
 |----------------------------------------:-----------------------------:
 |-----------------------------------------------------------------|
 |-----------------------------------------------------------------|
 |-(7)-------------------------------------------------------------|
 |-(7)-------------------------------------------------------------|
 |-(5)-------------------------------------------------------------|
 |-----------------------------------------------------------------|

|
 
 |-10--10-8----10-10-8---10-10-8----10-10-8---10-10-8----10-10-8---|
 |----------10---------8---------10---------8---------10---------8-|
 |-----------------------------------------------------------------|
 |-----------------------------------------------------------------|
 |-----------------------------------------------------------------|
 |-----------------------------------------------------------------|
 |----------------------------------------------------:
 |----------------------------------------------------:
 |-(7)------------------------------------------------:
 |-(7)------------------------------------------------:
 |-(5)------------------------------------------------:
 |----------------------------------------------------:

|
 
 |-10--8-10-8-5-3-5-3-1-3-1-0-1-0---------------------:
 |--------------------------------3-1-0---------------:
 |--------------------------------------2-0-----------:
 |------------------------------------------3-2-0-----:
 |------------------------------------------------3-2-:
 |----------------------------------------------------:
 |---------------------------------:-----------|
 |---------------------------------:-----------|
 |-(7)-----------------------------:-----------|
 |-(7)-----------------------------:-----------|
 |-(5)-------------------(0)--(3)--:-(8)--5----|
 |---------------------------------:-----------|

|
 
 |---------------------------------:-----------|
 |---------------------------------:-----------|
 |---------------------------------:-----------|
 |-----0-2-3-2-3-2-0---------------:-----------|
 |--3----------------3-2--0----3---:--8---5----|
 |---------------------------------:-----------|

<
 
 |-------------:---------------------------------------------------------------------------------:
 |-------------:---------------------------------------------------------------------------------:
 |-------------:---------------------------------------------------------------------------------:
 |-------------:-(7)-------------------------------(7)----------(14)----------(12)-------(10)----:
 |-(5)\--------:-(5)-------------------------------(5)----------(12)----------(10)--------(8)----:
 |-------------:---------------------------------------------------------------------------------:

|
 
 |-------------:--------17-------15-------13-------------------------17------------15-----13-----:
 |-------------:-15--15----13-13----11-11----10-10-----14-15-15---------13-13---------11------11-:
 |-------------:---------------------------------------------------------------------------------:
 |-------------:---------------------------------------------------------------------------------:
 |-(5)---------:---------------------------------------------------------------------------------:
 |-------------:---------------------------------------------------------------------------------:
 |----------------------------------------------------------------------|
 |----------------------------------------------------------------------|
 |----------------------------------------------------------------------|
 |--7-------------------------------------------------------------------|
 |--5-------------------------------------------------------------------|
 |----------------------------------------------------------------------|

|
 
 |-------12-13-15-17-19-20-22--(22)-20-22--22-20-19-17-15-13-12---------|
 |-13-15--------------------------------------------------------15-13---|
 |----------------------------------------------------------------------|
 |----------------------------------------------------------------------|
 |----------------------------------------------------------------------|
 |----------------------------------------------------------------------|
 |--------------------------------------------------------:-----------:-----|
 |--------------------------------------------------------:-----------:-----|
 |--------------------------------------------------------:-----------:-----|
 |-(7)----------------------------------------------------:-----------:-----|
 |-(5)----------------------------------------------------:--7--------:-----|
 |--------------------------------------------------------:--5--------:-----|

|
| >
 
 |-----------12-13-15-17-19-20-22--(22)-20-22-20-17-(17)--:-----------:-----|
 |-12--13-15----------------------------------------------:-----------:-----|
 |--------------------------------------------------------:-----------:-----|
 |--------------------------------------------------------:-19--------:-----|
 |--------------------------------------------------------:-----------:-----|
 |--------------------------------------------------------:-----------:-----|
 |----------:-----------------------------------|
 |----------:-----------------------------------|
 |-7--------:-(7)-------------------------------|
 |-7--------:-(7)-------------------------------|
 |-5--------:-(5)-------------------------------|
 |----------:-----------------------------------|

|
 
 |----------:-15--15-15-13-13-13-13-13-13-12-12-|
 |----------:-15--15-15-15-15-15-15-15-15-13-13-|
 |----------:-14--14-14-14-14-14-14-14-14-14-14-|
 |----------:-----------------------------------|
 |----------:-----------------------------------|
 |----------:-----------------------------------|
 |------------------------------------|
 |------------------------------------|
 |-(7)--------------------------------|
 |-(7)--------------------------------|
 |-(5)--------------------------------|
 |------------------------------------|

|
 
 |-12--12-12-10-10-10-10-10-10--8--8--|
 |-13--13-13-11-11-11-11-11-11-10-10--|
 |-12--12-12-12-12-12-10-10-10-10-10--|
 |------------------------------------|
 |------------------------------------|
 |------------------------------------|
 |-----------------------------------|-----------------------------------|
 |-----------------------------------|-----------------------------------|
 |-(7)-------------------------------|-(7)-------------------------------|
 |-(7)-------------------------------|-(7)-------------------------(7)---|
 |-(5)-------------------------------|-(5)-------------------------(5)---|
 |-----------------------------------|-----------------------------------|

|
 
 |-15--15-15-13-13-13-13-13-13-12-12-|-12--12-12-10-10-10-10-10--8--7--5-|
 |-15--15-15-15-15-15-15-15-15-13-13-|-13--13-13-11-11-11-11-11-10--8--6-|
 |-14--14-14-14-14-14-14-14-14-14-14-|-12--12-12-12-12-12-10-10-10--9--7-|
 |-----------------------------------|-----------------------------------|
 |-----------------------------------|-----------------------------------|
 |-----------------------------------|-----------------------------------|

<
 
 |-----------------|------------|--------||
 |-----------------|------------|--------||
 |-----------------|------------|--------||
 |-(5)-------------|-(5)--------|--5-----||
 |-(3)-------------|-(3)--------|--3-----||
 |-----------------|------------|--------||

|
| > <
 
 |--3--1-0-(0)-----|-(0)--------|-(0)----||
 |--5--3-1-(1)-----|-(1)--------|-(1)----||
 |--5--3-0-(0)-----|-(0)--------|-(0)----||
 |-----------------|------------|--------||
 |-----------------|------------|--------||
 |-----------------|------------|--------||

Intro II
[D] [Dm7] [C]  
[4/4] Gtr I
\0.5
~~~ ~~~
 
 ||--------------------|----------------------|
 ||o-8---8-7-(7)-------|-6-(6)----5-(5)-------|
 ||--7---7-7-(7)-------|-5-(5)----5-(5)-------|
 ||--------------------|----------------------|
 ||o---5-----------5-5-|------------------5-5-|
 ||--------------------|----------------------|

|
| Gtr II
 
 ||--3-2-3-2-(2)-------|-1--------0-(0)-------|
 ||o-3---3-3-(3)-------|-1--------1-(1)-------|
 ||--2---2-2-(2)-------|-2--------0-(0)-------|
 ||--------------------|----------------------|
 ||o-------------------|----------------------|
 ||--------------------|----------------------|

1.
[Dm7] [C] [G5F5] [D5] \0.5
~~~
 
 |-------------------|----------------------||
 |-6---6-5-(5)-------|---------------------o||
 |-5---5-5-(5)-------|------7-(7)-----------||
 |-------------------|------7-(7)-----------||
 |---5-----------5-5-|-5-3--5-(5)----------o||
 |-------------------|-3-1------------------||

|
 
 |-1---1-0-(0)-------|--------------3-1-----||
 |-1-3-1-1-(1)-------|-3----3-(3)-------3--o||
 |-2---2-0-(0)-------|------2-(2)-----------||
 |-------------------|-5--------------------||
 |-------------------|---------------------o||
 |-------------------|----------------------||

2.
[G5F5] [D5]  
 
 |---------------|----------|--------||
 |---------------|----------|--------||
 |------7-(7)----|-7--------|-(7)----||
 |------7-(7)----|-7--------|-(7)----||
 |-5-3--5-(5)----|-5--------|-(5)----||
 |-3-1-----------|----------|--------||

|
 
 |---------------|-5--------|-(5)----||
 |-3----3-(3)----|-3--------|-(3)----||
 |------2-(2)----|----------|--------||
 |-5-------------|----------|--------||
 |---------------|----------|--------||
 |---------------|----------|--------||

Verse
D5 N.C.
~
 
 ||-----------|------------|-------------------|-------------------|
 ||o----------|------------|-------------------|-------------------|
 ||--7--------|-(7)--------|-7-7---7-7---------|-7-7---------------|
 ||--7--------|-(7)--------|-7-7---7-7---------|-7-7----5p3--------|
 ||o-5--------|-(5)--------|-5-5---5-5---------|-5-5--------5-3-5--|
 ||-----------|------------|-------------------|-------------------|

|
 
 ||--5--------|-(5)--------|------------17-----|-------------------|
 ||o-3--------|-(3)--------|------------19-----|--------8-6--------|
 ||-----------|------------|------------19-14--|------------7-5-7--|
 ||-----------|------------|---------------16--|-------------------|
 ||o----------|------------|---------------17--|-------------------|
 ||-----------|------------|-------------------|-------------------|

[D5]  
 
 |----------|-3--------|-------------------|-----------------||
 |----------|-3--------|-------------------|-----------------||
 |-7--------|-5--------|-7-7---7-7---------|-7-7---7-7-------||
 |-7--------|-5--------|-7-7---7-7---------|-7-7---7-7-------||
 |-5--------|-3--------|-5-5---5-5---------|-5-5---5-5-------||
 |----------|----------|-------------------|-------------x/--||

|
 
 |----------|----------|------------17-----|-----------------||
 |----------|----------|------------19-----|-----------------||
 |----------|----------|------------19-14--|-----------------||
 |----------|----------|---------------16--|-----------------||
 |----------|----------|---------------17--|-----------------||
 |----------|----------|-------------------|-----------------||

Pre-Chorus
[G] ~[A]
 
 |--------------------|-----------------------|------------------|
 |--------------------|-----------------------|------------3--3--|
 |----------5-5-x-5-5-|-----------------------|-2--2-x-x-x-2--2--|
 |-5--5-x-x-5-5-x-5-5-|--5---5--5p3-----------|-2--2-x-x-x-4--4--|
 |-5--5-x-x-----------|--5---5------5-3-5-----|-0--0-x-x-x-------|
 |-3--3-x-x-----------|--3---3------------3h5-|------------------|

|
 
 |--------------------|-----------------------|------------------|
 |-3------------------|-(3)-------------------|-5----------------|
 |--------------------|-----------------------|------------------|
 |-5------------------|-(5)-------------------|-7----------------|
 |--------------------|-----------------------|------------------|
 |--------------------|-----------------------|------------------|

~[G]
 
 |---------------------|--------------|
 |--------------3---3--|--------------|
 |--2---2-------2---2--|-------x-5-5--|
 |--2---2-------4---4--|-5--5--x-5-5--|
 |--0---0-0-0-0---0----|-5--5---------|
 |---------------------|-3--3---------|

|
 
 |---------------------|--------------|
 |-(5)-----------------|-3------------|
 |---------------------|--------------|
 |-(7)-----------------|-5------------|
 |---------------------|--------------|
 |---------------------|--------------|

[A]  
 
 |-----------------------|--------------------|
 |-----------------------|------------3--3----|
 |-----------------------|-2--2-x-x-x-2--2----|
 |--5---5--5p3-----------|-2--2-x-x-x-4--4----|
 |--5---5------5-3-5-----|-0--0-x-x-x---------|
 |--3---3------------3h5-|--------------------|

|
 
 |-----------------------|--------------------|
 |-(3)-------------------|-5------------------|
 |-----------------------|--------------------|
 |-(5)-------------------|-7------------------|
 |-----------------------|--------------------|
 |-----------------------|--------------------|

Chorus
[D] [Dm7] \0.5[C]
~~~ ~~~
 
 |----------|------------||-------------------|------------------------|
 |----------|------------||-8---8-7-(7)-------|-6-(6)----5-(5)---------|
 |-2--------|---xS=x\----||-7---7-7-(7)-------|-5-(5)----5-(5)---------|
 |-2--------|---xS=x\----||-------------------|------------------------|
 |-0--------|---xS=x\----||---5-----------5-5-|------------------5-5---|
 |----------|------------||-------------------|------------------------|

|
 
 |----------|------------||-3-2-3-2-(2)-------|-1--------0-(0)---------|
 |----------|------------||-3---3-3-(3)-------|-1--------1-(1)---------|
 |----------|------------||-2---2-2-(2)-------|-2--------0-(0)---------|
 |----------|------------||-------------------|------------------------|
 |----------|------------||-------------------|------------------------|
 |----------|------------||-------------------|------------------------|

[Dm7] [C] ~~~[G5F5] [D5]
 
 |-------------------|---------------|
 |-6---6-5-(5)-------|---------------|
 |-5---5-5-(5)-------|------7-(7)----|
 |-------------------|------7-(7)----|
 |---5-----------5-5-|-5-3--5-(5)----|
 |-------------------|-3-1-----------|

|
 
 |-1-----0-(0)-------|---------------|
 |-1-----1-(1)-------|-3----3-(3)----|
 |-2-----0-(0)-------|------2-(2)----|
 |-------------------|-5-------------|
 |-------------------|---------------|
 |-------------------|---------------|

[D] [Dm7] \0.5[C]
~~~ ~~~
 
 |-------------------|-----------------------|
 |-8---8-7-(7)-------|-6-(6)----5-(5)--------|
 |-7---7-7-(7)-------|-5-(5)----5-(5)--------|
 |-------------------|-----------------------|
 |---5-----------5-5-|------------------5-5--|
 |-------------------|-----------------------|

|
 
 |-3-2-3-2-(2)-------|-1--------0-(0)--------|
 |-3---3-3-(3)-------|-1--------1-(1)--------|
 |-2---2-2-(2)-------|-2--------0-(0)--------|
 |-------------------|-----------------------|
 |-------------------|-----------------------|
 |-------------------|-----------------------|

1.
[G5] \0.5
 
 |----------|-----------------------||
 |----------|-----------------------||
 |----------|-----------------------||
 |----------|-----------------------||
 |-5--------|-(5)----(5)-x-x--5-----||
 |-3--------|-(3)----(3)-x-x--3-----||

|
| \0.5
 
 |----------|-----------------------||
 |-3--------|-(3)------------(3)----||
 |----------|-----------------------||
 |-5--------|-(5)------------(5)----||
 |----------|-----------------------||
 |----------|-----------------------||

Re-Intro
[D] [Dm7] \0.5[C]
~~~ ~~~
 
 |-------------------|-----------------------|
 |-8---8-7-(7)-------|-6-(6)----5-(5)--------|
 |-7---7-7-(7)-------|-5-(5)----5-(5)--------|
 |-------------------|-----------------------|
 |---5-----------5-5-|------------------5-5--|
 |-------------------|-----------------------|

|
 
 |-3-2-3-2-(2)-------|-1--------0-(0)--------|
 |-3---3-3-(3)-------|-1--------1-(1)--------|
 |-2---2-2-(2)-------|-2--------0-(0)--------|
 |-------------------|-----------------------|
 |-------------------|-----------------------|
 |-------------------|-----------------------|

Chorus (Continued)
2.
[Dm7] [C] ~~~ [G5F5] [D5] [Dm7] [C] ~~~[G5F5] [D5]
 
 |-------------------|----------------||-------------------|---------------|
 |-6---6-5-(5)-------|---------------o||-6---6-5-(5)-------|---------------|
 |-5---5-5-(5)-------|------7-(7)-----||-5---5-5-(5)-------|------7-(7)----|
 |-------------------|------7-(7)-----||-------------------|------7-(7)----|
 |---5-----------5-5-|-5-3--5-(5)----o||---5-----------5-5-|-5-3--5-(5)----|
 |-------------------|-3-1------------||-------------------|-3-1-----------|

|
 
 |-1-----0-(0)-------|----------------||-1-----0-(0)-------|---------------|
 |-1-----1-(1)-------|-3----3-(3)----o||-1-----1-(1)-------|-3----3-(3)----|
 |-2-----0-(0)-------|------2-(2)-----||-2-----0-(0)-------|------2-(2)----|
 |-------------------|-5--------------||-------------------|-5-------------|
 |-------------------|---------------o||-------------------|---------------|
 |-------------------|----------------||-------------------|---------------|

[D] [Dm7] \0.5[C] [G5]
~~~ ~~~
 
 |-------------------|----------------------|------|
 |-8---8-7-(7)-------|-6-(6)----5-(5)-------|------|
 |-7---7-7-(7)-------|-5-(5)----5-(5)-------|------|
 |-------------------|----------------------|------|
 |---5-----------5-5-|------------------5-5-|-5----|
 |-------------------|----------------------|-3----|

|
 
 |-3-2-3-2-(2)-------|-1--------0-(0)-------|------|
 |-3---3-3-(3)-------|-1--------1-(1)-------|-3----|
 |-2---2-2-(2)-------|-2--------0-(0)-------|------|
 |-------------------|----------------------|-5----|
 |-------------------|----------------------|------|
 |-------------------|----------------------|------|

Guitar Solo
This is where it gets tricky, I like to tap parts of it with the hammer ons
And pull offs because its easier and sounds cooler, even though its not down
as taps on here for parts of it.
\0.5 [D]\0.5 \0.5/ \0.5/ \0.5/ \0.5/ \0.5/ \0.5/ \0.5/ \0.5/
 
 |------------------||---------------------------------------------------------------------------|
 |------------------||---------------------------------------------------------------------------|
 |-0----------------||------------<5>----(<5>)---(<5>)---(<5>)---(<5>)---(<5>)---(<5>)---(<5>)---|
 |---[0]-(0)--------||---------------------------------------------------------------------------|
 |------------------||-5-------------------------------------------------------------------------|
 |------------------||-3-------------------------------------------------------------------------|

|
 
 |------------------||-3----2-3-2-(2)------------------------------------------------------------|
 |------------------||-3------3-3-(3)------------------------------------------------------------|
 |------------------||-2------2-2-(2)------------------------------------------------------------|
 |------------------||---------------------------------------------------------------------------|
 |------------------||---------------------------------------------------------------------------|
 |------------------||---------------------------------------------------------------------------|

\0.5/ \0.5/ \0.5/ \0.5/ \0.5/ \0.5/ \0.5/ \0.5/
~~~~~
 
 |------------------------------------------------------------------------------------------|
 |--------------------------------------------------------------------------------10h13p10--|
 |-(<5>)---<2>----(<2>)---(<2>)---(<2>)---<0>----(<0>)---(<0>)---(<0>)--(0)-12-11-----------|
 |------------------------------------------------------------------------------------------|
 |------------------------------------------------------------------------------------------|
 |------------------------------------------------------------------------------------------|

|
 
 |---1---------------------------------------------0--------------(0)-----------------------|
 |---1---------------------------------------------1--------------(1)-----------------------|
 |---2---------------------------------------------0--------------(0)-----------------------|
 |------------------------------------------------------------------------------------------|
 |------------------------------------------------------------------------------------------|
 |------------------------------------------------------------------------------------------|

[F] T T [C] T ~~~ [G] [D] ~~~
 
 |----------------------------------------|----10-------13-12h13---13-----20b22==|
 |-17p13p10-17-(17)p13p10---17-10h13------|-13----13-10--------------------------|
 |----------------------------------------|--------------------------------------|
 |----------------------------------------|--------------------------------------|
 |----------------------------------------|--------------------------------------|
 |----------------------------------------|--------------------------------------|

|
 
 |--1------------1--------0-------(0)-----|--------------------------------------|
 |--1------------1--------1-------(1)-1---|--3-------------------3-(3)-----------|
 |--2------------2--------0-------(0)-0---|----------------------2-(2)-----------|
 |------------------------------------2---|--5-----------------------------------|
 |----------------------------------------|--------------------------------------|
 |----------------------------------------|--------------------------------------|

\1___/ [F] [C] \0.5
 
 |-(20)-20r-20b22-20b22----------------------|---20b22-20b22-------------10h13p10---|
 |-------------------------------------------|--------------------------------------|
 |----------------------x\-------------------|--------------------0-----------------|
 |--------------------------0----------------|--------------------------------------|
 |-----------------------------3-3---(3)-3-3-|-3---------------3--------------------|
 |-------------------------------------------|--------------------------------------|

|
 
 |---3---3---------3----2--(2)---------------|-1-------------0---(0)----------------|
 |---3---3---------3----3--(3)---------------|-1-------------1---(1)----------------|
 |---2---2---------2----2--(2)---------------|-2-------------0---(0)----------------|
 |-------------------------------------------|--------------------------------------|
 |-------------------------------------------|--------------------------------------|
 |-------------------------------------------|--------------------------------------|

[F] [C]  
 
 |-10h14p10-17p14s10-14p12p10--------------------------------------------|
 |----------------------------14p12p10--8h=10s13-8h10h13-5h8p5-----------|
 |-------------------------------------------------------------5-4h5p4---|
 |---------------------------------------------------------------------5-|
 |-----------------------------------------------------------------------|
 |-----------------------------------------------------------------------|

|
 
 |--1--------1--------1--------0-------(0)-------------------------------|
 |--1--------1--------1--------1-------(1)-------------------------------|
 |--2--------2--------2--------0-------(0)-------------------------------|
 |-----------------------------------------------------------------------|
 |-----------------------------------------------------------------------|
 |-----------------------------------------------------------------------|

[G] [D] \1/
 
 |-------------------------------|
 |-------------------------------|
 |-------------------------------|
 |-5p3p0h5p3p0h5p3p0-(0)---0-x-x-|
 |-------------------------------|
 |-------------------------------|

|
 
 |-------------------------------|
 |-3---------------3-(3)---------|
 |-----------------2-(2)---------|
 |-5-----------------------------|
 |-------------------------------|
 |-------------------------------|

[Dm7] [C]  
 
 |---------------------------------------------|-----------------------------|
 |----------10-----------12------------13----8-|-(8)-7-8-7-8-7---------------|
 |---12b14-(12)---14b16-(14)----15b17-(15)-----|---------------7-7-(7)-------|
 |---------------------------------------------|-----------------------------|
 |---------------------------------------------|-------------------------3-5-|
 |---------------------------------------------|-----------------------------|

|
 
 |-3---------3--3------------2---------(2)-----|--1------------0---(0)-------|
 |-3---------3--3------------3---------(3)-----|--1------------1---(1)-------|
 |-2---------2--2------------2---------(2)-----|--2------------0---(0)-------|
 |---------------------------------------------|-----------------------------|
 |---------------------------------------------|-----------------------------|
 |---------------------------------------------|-----------------------------|

[Dm7] [C]  
 
 |--------------------------------------------------------|
 |--------------------------------------------------------|
 |-------------------------------5-----7-5-(5)---5--------|
 |-----------------3-5p3----5h=7---7-5---------7---7-6----|
 |-(5)-5-5p3---3h5-------5--------------------------------|
 |-----------5--------------------------------------------|

|
 
 |--1----1-----1-----0-----(0)----------------------------|
 |--1----1-----1-----1-----(1)----------------------------|
 |--2----2-----2-----0-----(0)----------------------------|
 |--------------------------------------------------------|
 |--------------------------------------------------------|
 |--------------------------------------------------------|

[G] [D] ~~~
 
 |---------------------------------------|
 |---------------------------------------|
 |-----------------------------------<5>-|
 |-5-3---------3-5-3---------------x-----|
 |-----5-4-3-5-------5-3---5-(5)---------|
 |-----------------------5---------------|

|
 
 |---------------------------------------|
 |-3-------------------3-----(3)---------|
 |---------------------2-----(2)---------|
 |-5-------------------------------------|
 |---------------------------------------|
 |---------------------------------------|

[D] \0.5/ \0.5/ \0.5
~
 
 |-----------------------------------------------|
 |-----------------------------------------------|
 |-(<5>)---(<5>)---(<5>)----5b7===5--5rp3--------|
 |----------------------------------------5-3-5--|
 |-----------------------------------------------|
 |-----------------------------------------------|

|
 
 |---3-------3-------3----2------(2)-------------|
 |---3-------3-------3----3------(3)-------------|
 |---2-------2-------2----2------(2)-------------|
 |-----------------------------------------------|
 |-----------------------------------------------|
 |-----------------------------------------------|

[Dm7]\0.5/ \0.5 \0.5/ [C]\0.5/ \0.5/
~~~
 
 |-8-----(8)-------------------------------|
 |-----------------------------------------|
 |--------------7-----7-----7p=====5----x/-|
 |-----------------------------------------|
 |-----------------------------------------|
 |-----------------------------------------|

|
 
 |-1------------------0-----------(0)------|
 |-1------------------1-----------(1)------|
 |-2------------------0-----------(0)------|
 |-----------------------------------------|
 |-----------------------------------------|
 |-----------------------------------------|

[Dm7] [C]  
 
 |----------------13-10--------------------13-10-13-10----10--------------|
 |-10----13-12-10-------13-10----10-10-----------------13----13-10----13--|
 |----12----------------------12--------12-------------------------12-----|
 |------------------------------------------------------------------------|
 |------------------------------------------------------------------------|
 |------------------------------------------------------------------------|

|
 
 |--1-----1--------1--------0-------(0)-----------------------------------|
 |--1-----1--------1--------1-------(1)-----------------------------------|
 |--2-----2--------2--------0-------(0)-----------------------------------|
 |------------------------------------------------------------------------|
 |------------------------------------------------------------------------|
 |------------------------------------------------------------------------|

[G] [D]  
 
 |-------------------------------------------------------------|
 |-10----------------------------------------------------------|
 |----12-10-------10-10----------------------------------------|
 |----------12-10-------12-10-12-10----10----------------------|
 |----------------------------------12-----12-10-12-10---------|
 |-----------------------------------------------------13-10\--|

|
 
 |-------------------------------------------------------------|
 |--3--------------------------3-------(3)---------------------|
 |-----------------------------2-------(2)---------------------|
 |--5----------------------------------------------------------|
 |-------------------------------------------------------------|
 |-------------------------------------------------------------|

Chorus
[D] [Dm7] \0.5[C] [Dm7] [C]
~~~ ~~~ ~~~
 
 ||--------------------|----------------------|-------------------|
 ||o-8---8-7-(7)-------|-6-(6)----5-(5)-------|-6---6-5-(5)-------|
 ||--7---7-7-(7)-------|-5-(5)----5-(5)-------|-5---5-5-(5)-------|
 ||--------------------|----------------------|-------------------|
 ||o---5-----------5-5-|------------------5-5-|---5-----------5-5-|
 ||--------------------|----------------------|-------------------|

|
 
 ||--3-3-3-2-(2)-------|-1--------0-(0)-------|-1-1-1-0-(0)-------|
 ||o-3-3-3-3-(3)-------|-1--------1-(1)-------|-1-1-1-1-(1)-------|
 ||--2-2-2-2-(2)-------|-2--------0-(0)-------|-2-2-2-0-(0)-------|
 ||--------------------|----------------------|-------------------|
 ||o-------------------|----------------------|-------------------|
 ||--------------------|----------------------|-------------------|

Outro
[G5F5] [D5] [D] ~~~
 
 |----------------||-||--------------------|
 |---------------o||-||o-8---8-7-(7)-------|
 |------7-(7)-----||-||--7---7-7-(7)-------|
 |------7-(7)-----||-||--------------------|
 |-5-3--5-(5)----o||-||o---5-----------5-5-|
 |-3-1------------||-||--------------------|

|
 
 |----------------||-||--3-3-3-2-(2)-------|
 |-3----3-(3)----o||-||o-3-3-3-3-(3)-------|
 |------2-(2)-----||-||--2-2-2-2-(2)-------|
 |-5--------------||-||--------------------|
 |---------------o||-||o-------------------|
 |----------------||-||--------------------|

[Dm7] \0.5[C] [Dm7] [C] [G5F5] [D5]
~~~ ~~~
 
 |----------------------|-------------------|---------------|
 |-6-(6)----5-(5)-------|-6---6-5-(5)-------|---------------|
 |-5-(5)----5-(5)-------|-5---5-5-(5)-------|------7-(7)----|
 |----------------------|-------------------|------7-(7)----|
 |------------------5-5-|---5-----------5-5-|-5-3--5-(5)----|
 |----------------------|-------------------|-3-1-----------|

|
 
 |-1--------0-(0)-------|-1-1-1-0-(0)-------|---------------|
 |-1--------1-(1)-------|-1-1-1-1-(1)-------|-3----3-(3)----|
 |-2--------0-(0)-------|-2-2-2-0-(0)-------|------2-(2)----|
 |----------------------|-------------------|-5-------------|
 |----------------------|-------------------|---------------|
 |----------------------|-------------------|---------------|

[D] [Dm7] \0.5[C]
~~~ ~~~
 
 |-------------------|----------------------|
 |-8---8-7-(7)-------|-6-(6)----5-(5)-------|
 |-7---7-7-(7)-------|-5-(5)----5-(5)-------|
 |-------------------|----------------------|
 |---5-----------5-5-|------------------5-5-|
 |-------------------|----------------------|

|
 
 |-3-3-3-2-(2)-------|-1--------0-(0)-------|
 |-3-3-3-3-(3)-------|-1--------1-(1)-------|
 |-2-2-2-2-(2)-------|-2--------0-(0)-------|
 |-------------------|----------------------|
 |-------------------|----------------------|
 |-------------------|----------------------|

[Dm7] [C] ~~~[G5F5] [D5]
 
 |-------------------|----------------||
 |-6---6-5-(5)-------|---------------o||
 |-5---5-5-(5)-------|------7-(7)-----||
 |-------------------|------7-(7)-----||
 |---5-----------5-5-|-5-3--5-(5)----o||
 |-------------------|-3-1------------||

|
 
 |-1-1-1-0-(0)-------|----------------||
 |-1-1-1-1-(1)-------|-3----3-(3)----o||
 |-2-2-2-0-(0)-------|------2-(2)-----||
 |-------------------|-5--------------||
 |-------------------|---------------o||
 |-------------------|----------------||

Tablature Legend
 
 ----------------

h - hammer-on
p - pull-off
b - bend
pb - pre-bend
r - bend release (if no number after the r, then release immediately)
/\ - slide into or out of (from/to "nowhere")
s - legato slide
S - shift slide
<n> - natural harmonic
(n) - artificial harmonic
n(n) - tapped harmonic
~ - vibrato
tr - trill
T - tap
TP - trem. picking
PM - palm muting
\n/ - tremolo bar dip; n = amount to dip
\n - tremolo bar down
n/ - tremolo bar up
/n\ - tremolo bar inverted dip

Important: The song above is NOT stored on the Chordie server. The original song is hosted at www.azchords.com. Chordie works as a search engine and provides on-the-fly formatting. Chordie does not index songs against artists'/composers' will. To remove this song please click here.

Text color:
Chord color:
Chord grids: 
Font size:    
Page size: 

A C D D5 Dm7 G G5 F
Rate #2 of 2 versions

Jango Player

Login - add to songbook

SHARE PAGE  



You need to log in to post comments