Guitar Tabs, Chords and Lyrics
Server problems seems to be fixed. Chordie has been experiencing problems with songs disappearing. These issues now seems to be fixed, but still verifying the fix. If you find anything strange, please email admin@chordie.com.


She Don't Know Me  Bon Jovi

SHE DONā??T KNOW ME
Bon Jovi (1984)
INTRO: Eb Cm G# Eb A#
RIFF DURING THE INTRO:
[Eb] [Cm]  
 
 e --------------------------8-6-6-8---8-6-6-8----
 B ---8-6--9-8----8-6--9-8---8-6-6-8---8-6-6-8----
 G ---8-7-10-8----8-7-10-8------------------------
 D -----------------------------------------------
 A -----------------------------------------------
 E -----------------------------------------------

VERSE 1:
What more can I do,[Dm] there's nothing I haven't tried
[G#] Still it's so hard for her to [G]notice
[Cm] That I've tried hard to be straight
[Eb] There's nothing left I can say
If only she would look my [G#]way [A#7]
CHORUS: (WITH RIFF 2)
[Eb] She don't know me, she don't know She don't see me, she don't [Cm]care
She can't hear me, she can't hear Cannot help me, she don't want [G#]
She don't want me, like I want her Like I want her, I got to [A#]tell her
Got to tell her, that I love her That I love her
[G#] She don't [Eb]even know my [A#]name
VERSE 2: (same chords as Verse 1)
I dream of when she'll be mine I dream of crossing that line
and holding her so tender Dreaming it could come true
So many things I could do If only you'd give me a chance
CHORUS
BRIDGE:
[A#]Woh [G#]oh[A#] [G#] [Cm]
[A#]Woh [G#]oh[A#] [G#] [Cm]
A# G# A# G# Cm (in the first A# starts RIFF 1, play it until the end of bridge)
Woh oh
[A#]Woh [G#]oh[A#] [G#] [Cm] [A#]
CHORUS TO FADE
RIFFS:
* RIFF 1: (quickly)
 
 e -----------------------------------------------------------
 B ---16-15-------16-15-------16-15-------16-15-------16-15---
 G ---------15-17-------15-17-------15-17-------15-17---------
 D -----------------------------------------------------------
 A -----------------------------------------------------------
 E -----------------------------------------------------------

* RIFF 2: (during the chorus)
[Eb] [Cm] [G#] [A#]  
 
 e -------------------------8-6-6-8---8-6-6-8------------------------6-6-8-6---6-6-8-6----
 B ---8-6--9-8---8-6--9-8---8-6-6-8---8-6-6-8----8-6-6-8---8-6-6-8---6-6-8-6---6-6-8-6----
 G ---8-7-10-8---8-7-10-8------------------------8-7-7-8---8-7-7-8---7-7-8-7---7-7-8-7----
 D ---------------------------------------------------------------------------------------
 A ---------------------------------------------------------------------------------------
 E ---------------------------------------------------------------------------------------


Important: The song above is NOT stored on the Chordie server. The original song is hosted at www.azchords.com. Chordie works as a search engine and provides on-the-fly formatting. Chordie does not index songs against artists'/composers' will. To remove this song please click here.

Text color:
Chord color:
Chord grids: 
Font size:    
Page size: 

A# A#7 Cm Dm Eb G G#
Rate #1 of 2 versions

Login - add to songbook

SHARE PAGE  



You need to log in to post comments