Guitar Tabs, Chords and Lyrics
Major upgrade!! After one year development the new version of Chordie is now online! Please give feedback.


What About Now  Bon Jovi

INTRO:
 
 |-------------------------|-----------------------|-----------------------|
 |-----------13--12--------|-----------13--12------|-----------13--12------|
 |--------12--------12-----|--------12--------12-12|--------12--------12---|
 |--12-14---------------14-|--12-14----------------|--12-14--------------12|
 |-------------------------|-----------------------|-----------------------|
 |-------------------------|-----------------------|-----------------------|

VERSE 1: muted
You wann[G]a start a fire?, It only[C] takes a spark
You gott[Em]a get behind the wheel?,[C] If you're ever gonna drive that car
 
 |-------------------------------------------------------|
 |-10-10-10-10-10-10-10-10-:|--|-5-5-5-5-5-5-5-5-:|------|
 |-10-10-10-10-10-10-10-10-:|--|-5-5-5-5-5-5-5-5-:|------|
 |-------------------------------------------------------|
 |-------------------------------------------------------|
 |-------------------------------------------------------|

If you w[G]anna take a bite, You'd [C]better have the teeth
 
 |----------------------------------------------------------------|
 |-8-8-8-7-7-7-8-8-8-7-7-7-8-8-7-7-------|-5-5-5-5-5-5-5-5-:|-----|
 |-9-9-9-9-9-9-9-9-9-9-9-9-9-9-9-9-------|-5-5-5-5-5-5-5-5-:|-----|
 |----------------------------------------------------------------|
 |----------------------------------------------------------------|
 |----------------------------------------------------------------|

If you'r[Em]e gonna take that step, [C]Then get up off of your knees
'Cause t[Am]onight, We're [G]alive
CHORUS:
Who'll stand for[G] the restless? And the lonely?
For the desperat[C]e? And the hungry?
with INTRO
Time for the cou[Em]nt, I'm hearing you[C] know
For the faithf[G]ul, The believer
For the [C]faceless, And the teacher
with INTRO
Stand up and be [Em]proud, [C]
What abo[G]ut now?[C]
VERSE 2: muted
You wann[G]a start a fight?, You've[C] gotta take aswing
Gotta ge[Em]t your hands in the dirt[C], To see what the harvest will bring
like 1. VERSE
You wann[G]a raise your voice?, Don[C]'t be scared to breathe
Don't be[Em] afraid to hurt, Don't b[C]e ashamed to need
'Cause t[Am]onight, We're a[G]live
CHORUS:
Who'll stand for[G] the restless? And the lonely?
For the desperat[C]e? And the hungry?
with INTRO
Time for the cou[Em]nt, I'm hearing you [C]know
For the faithf[G]ul, The believer
For the [C]faceless, And the teacher
with INTRO
Stand up and be [Em]proud, [C]
What abo[G]ut now?[G]
BRIDGE
We live [C5]for our reasons That drift through the seasons
'Till dr[G5]eams are just pale, dark and grey
And all [C5]of your plans, That slip out through your hands
Are the [Em]dreams that you[F#m] tak[G]e [A]to[Bm] your grave
PRE-CHORUS:
'Cause t[Am]onight, We're ali[D]ve
CHORUS:
Who'll stand for the restless? And the lonely?
For the desperate? And the hungry?
Time for the count, I'm hearing you [C]know
For the faithf[G]ul, The believer
For the [C]faceless, And the teacher
with INTRO
Stand up and be [Em]proud, [C]
What abo[G]ut now?[C]
What abo[G]ut now?[C]
What abo[G]ut now?[C]
What abo[G]ut now?

Important: The song above is NOT stored on the Chordie server. The original song is hosted at www.azchords.com. Chordie works as a search engine and provides on-the-fly formatting. Chordie does not index songs against artists'/composers' will. To remove this song please click here.

Text color:
Chord color:
Chord grids: 
Font size:    
Page size: 

A Am Bm C C5 D Em F#m G G5
Rate #1 of 4 versions

Login - add to songbook

SHARE PAGE  




You need to log in to post comments