Guitar Tabs, Chords and Lyrics
Major upgrade!! After one year development the new version of Chordie is now online! Please give feedback.


Peace of Mind  Boston

[Intro] 
Em C* G D 2x
[Verse] 
 
 E|---------------------------------------------------------------|
 B|---------------------------------------------------------------|
 G|---------------------------------------------------------------|
 D|---------------------------------------------------------------|
 A|--2--0--------------------0-----------------------0--2---3--0--|
 E|--------3--0-----0h2--3-----2---3--2--0--0-----3---------------|

Em C D* Em G D*
 
 E|---------------------------------------------------------------------------|
 B|---------------------------------------------------------------------------|
 G|---------------------------------------------------------------------------|
 D|---------------------------------------------------------------------------|
 A|-2--0--------------------0-----------------------0--2---3--0---2--0--------|
 E|-------3--0-----0h2--3-----2---3--2--0--0-----3----------------------3--3--|

Em C D* Em G D* G
[G]  
Now, if you're [G]feeling kinda low 'bout the dues you've been paying
[F]Future's coming [C]much too [G]slow
And you [G]wanna run but somehow you just keep on staying
[F]Can't decide on [C]which way to [D]go
Yeah, yeah, yeah
Em C* G D*
I understand about indecision
Em C* G D*
But I don't care if I get behind
Em C* G D*
People living in competition
Em C* G D* C
All I want is to have my peace of mind
[G]Yeah - o-o-oh
[G]Now you're climbing to the top of the company ladder
[F]Hope it doesn't [C]take too [G]long
[G]Can't you see there'll come a day when it won't matter
[F]Come a day when [C]you'll be [D]gone
Em C* G D*
I understand about indecision
Em C* G D*
But I don't care if I get behind
Em C* G D*
People living in competition
Em C* G D* C D
All I want is to have my peace of mind
[C-Part] 
D C Em*
D C Em*
D C Em*
Take a look ahead
D C Em* G
Take a look ahead
[Verse] 
[G]Now everybody's got advice they just keep on giving
[F]Doesn't mean too [C]much to [G]me
[G]Lots of people have to make-believe they're living
[F]Can't decide who [C]they should [D]be
Em C* G D*
I understand about indecision
Em C* G D*
But I don't care if I get behind
Em C* G D*
People living in competition
Em C* G D* C D
All I want is to have my peace of mind
[C-Part] 
D C Em*
D C Em*
D C Em*
Take a look ahead
[D]Take a look ahead[C]
[Verse] 
Em G*
Look ahead
D (strum once)
 
 Whoa-o-oh Whoa-o-oh Whoa-o-oh Whoa-o-o-oh

(Hit Strings)
[Intro] 
Em C* G D 2x
[Verse] 
Em C D*
Em G D* Repeat until fade

Important: The song above is NOT stored on the Chordie server. The original song is hosted at www.azchords.com. Chordie works as a search engine and provides on-the-fly formatting. Chordie does not index songs against artists'/composers' will. To remove this song please click here.

Text color:
Chord color:
Chord grids: 
Font size:    
Page size: 

C D F G
Rate #1 of 6 versions

Jango Player

Login - add to songbook

SHARE PAGE  




You need to log in to post comments