Guitar Tabs, Chords and Lyrics
Update 25:10. 13:00. Site is back up running again. Songbooks are recovered. Woring on getting search back up..


Versace on the Floor  Bruno Mars

 
 e-------------3/5--3--2--0--0-----------0--2---0-2-3-2-----0-------|
 ?-------3-----------------------------3-------3--------3-3---------|
 G-----2---2--------------------2--2--2-----------------------------|
 D---0--------------------------------------------------------------|
 A----------------------------------------------------------0-------|
 E---------------------------2--------------3-----3-----3-3---------|

[D] [F#m] [G] [Gm] [-A]  
 
 e-------------3/5--3--2--0--0-----------0--2---0-2-3-2-----0-------|
 ?-------3-----------------------------3-------3--------3-3---------|
 G-----2---2--------------------2--2--2-----------------------------|
 D---0--------------------------------------------------------------|
 A----------------------------------------------------------0-------|
 E---------------------------2--------------3-----3-----3-3---------|

[D] [F#m] [G] [Gm-A]  
 
 e---5-5-5--5--7---------------0-------0----------------------------|
 ?---------------10--8-7--7-7-8--3----------------------------------|
 G-----------------------------------3------------------------------|
 D------------------------------------------------------------------|
 A--0---------------------------------------------------------------|
 E-------------7-------7----0--------3-3----------------------------|

[Am] [Bm] [Em] [Gm]  
 
 e-----0--2-3--5---------0--2-3--5----2--0-0--0---------------------|
 ?---3------------3----3-----------3-------0--3---------------------|
 G-----------------------------------------2--0---------------------|
 D-----------------------------------------2--2---------------------|
 A--------------------------2------2--------------------------------|
 E--------0-------0-------------------------------------------------|

[Em] [Bm] [A9-A7]  
 
 e---0--2-3--5--5-2-5---2-5-2-5/7---7-7-7-7-7--5--5-7-8-10--7-5-7-5--3--------|
 ?--3-------------------------------7-----------------------------------------|
 G----------------------------------------------------------------------------|
 D----------------------------------------------------------0-----------------|
 A------------------------0---0-----------------------0-----------------------|
 E-----------3------3---------------7--------------------------------3--------|

[G] [A] [Bm] 
[Am] [D] [G]  
 
 e----------0-5-3-2-0??5h7--5-3-2-2-3-5------2----------------------|
 ?-------3-3---------------------------3------3-3-3--3-------------|
 G----------------------------------------2------------------------|
 D---------------------------------------------------0-------------|
 A------------------------------------------0----------------------|
 E------------2------------0-----2-----3---------------------------|

[F#m] [Em] [F#m] [G] [A] [D]  
 
 e--5--2-3-5-5-3-3-2-2-0-0-----0-----2------------------------|
 ?-------------------------3-----------3-3-3--3---------------|
 G---------------------------3-----2--------------------------|
 D--------------------------------------------0---------------|
 A-----------------------------------0------------------------|
 E--2--------3-------3-------3--------------------------------|

[F#m] [G] [Gm] [A] [D]  
 
 e--5--2-3-5-5-3-3-2-2-0-0-----0-----2------------------------|
 ?-------------------------3-----------3-3-3--3---------------|
 G---------------------------3-----2--------------------------|
 D--------------------------------------------0---------------|
 A-----------------------------------0------------------------|
 E--2--------3-------3-------3--------------------------------|

[F#m] [G] [Gm] [A] [D] 

Important: The song above is NOT stored on the Chordie server. The original song is hosted at www.azchords.com. Chordie works as a search engine and provides on-the-fly formatting. Chordie does not index songs against artists'/composers' will. To remove this song please click here.

Text color:
Chord color:
Chord grids: 
Font size:    
Page size: 

A Am Bm D Em F#m G Gm
Rate #1 of 2 versions

Login - add to songbook

SHARE PAGE  



You need to log in to post comments