Guitar Tabs, Chords and Lyrics
Server problems seems to be fixed. Chordie has been experiencing problems with songs disappearing. These issues now seems to be fixed, but still verifying the fix. If you find anything strange, please email admin@chordie.com.


Day In Day Out   Catch 22

 
 e---------------------------|-------|--5--|
 B---------------------------|-------|--5--|
 G--7-7-----------------7-7--|--777--|--6--|
 D--7-7-4-4-5-5-9-7-5-5-7-7--|--777--|--7--|
 A--5-5-4-4-5-5-9-7-5-5-5-5--|--555--|--7--|
 E------2-2-3-3-7-5-3-3------|-------|--5--|

 


 (There's palm muting here.. I'm not posting all that here though.)


 


 e--5--|


 B--7--|


 G--7--|


 D--7--|


 A--5--|


 E-----|


 


 Verse: (Horn part and "I don't wanna barge in on your secrecy...")


 


 Same as above as ska barre chords(end2 both times).


 


 Chorus1: ("I don't need anyone...")


 


 

 
 e------------------------|
 B------------------------|
 G-----7-----7-6----7-----|
 D--5--7--9--7-6-5--7--7--|
 A--5--5--9--5-4-5--5--7--|
 E--3-----7------3-----5--|

 


 


 Chorus2:


 


 

 
 e--5-5-5-5-3----------------5-3-5-3-5-----------------|
 B--7-7-7-5-3----------------5-3-5-3-5-----------------|
 G--7-7-7-6-4----------------6-4-6-4-6-----------------|
 D--7-7-7-7-5----------------7-5-7-5-7-----------------|
 A--5-5-5-7-5----------------7-5-7-5-7-----------------|
 E--------5-3----------------5-3-5-3-5-----------------|


Important: The song above is NOT stored on the Chordie server. The original song is hosted at www.azchords.com. Chordie works as a search engine and provides on-the-fly formatting. Chordie does not index songs against artists'/composers' will. To remove this song please click here.

This song is displayed as text-only. Transposing and tuning is only available for chordpro-songs.
Rate #1 of 1 versions

Login - add to songbook

SHARE PAGE  




You need to log in to post comments