Guitar Tabs, Chords and Lyrics
Server problems seems to be fixed. Chordie has been experiencing problems with songs disappearing. These issues now seems to be fixed, but still verifying the fix. If you find anything strange, please email admin@chordie.com.


Giving Up, Giving In   Catch 22

 
 e--3-------3--------2-----3p2â??0-2---3-----3---------------------|
 B----3-------3--------3---------------3--------------3-----3----|
 G------0-------0--------2---------------0----------0-----0------|
 D-------------------0-------------------------------------------|
 A--------------------------------------------0h2h3-----2-----0--|
 E--3--------------------------------3---------------------------|
 e--3-------3------0-----0-------2-----2-----2-----2-------------|
 B----3-------3------1-----1-------3-----3-----3-----3 ----------|
 G------0-------0------0-----0-------2-----2-----2-----2---------|
 D-------------------------------0-------------------------------|
 A-----------------3---------------------------------------------|
 E--3------------------------------------------------------------|
 e--3-------3--------2-----3p2â??0-2---0-----0------0-----0-------|
 B----3-------3--------3---------------0-----0------1-----1-----|
 G------0-------0--------2---------------0-----0------0-----0---|
 D-------------------0------------------------------------------|
 A------------------------------------------------3-------------|
 E--3--------------------------------0--------------------------|
 e--2-----2-----|
 B----3-----3---|
 G------2-----2-|
 D--0-----------|
 A--------------|
 E--------------|
 e--3-------3--------2-----3p2â??0-2---------3-----3-----------|
 B----3-------3--------3-----------------3-----3-------------|
 G------0-------0--------2-----------------------------------|
 D-------------------0---------------------------------------|
 A------------------------------------3-----2----0-----------|(after line times 3)
 E--3--------------------------------------------------------|

 


 


 End on


 


 [E--3--]  


 [B-----]  


 [G-----]  


 [D-----]  


 [A-----]E--3â??


 


 Next part is:


 


 

 
 e-----------------------------------|
 B-----------------------------------|
 G-----------------------------------|
 D--5---4---2------------------------|
 A--3---2---0---5-----5-----5-----5--|
 E--------------3-----3-----3-----3--|

 


 


 Verse 1


 

 
 e----------------------| beat not shown, but after 3 single notes (1
 B----------------------| space apart, repetitively do the one in bold
 G----------------------|
 D-------7---4---5-4-2--|
 A---5---5---2---3-2-0--|
 E---3------------------|

 


 


 Chorus


 

 
 e----------------|
 B----------------|
 G----------------|
 D-5-----7--------|
 A-3--5--5--5-----|
 E----3-----3-----| (let all notes ring)

 


 


 Bridge


 e--3--


 [B--3--]G--0--


 D--0--


 [A--2--]E--3â??- do that a lot of times, then go into this:


 


 

 
 e-----------------------------------------| only do ()note last time
 B-----------------------------------------|
 G-----------------------------------------|
 D---5--4--2-------------7-7--4-4--5-4-2---|(2)
 A---3--2--0--------5-5--5-5--2-2--3-2-0---|(0)
 E------------------3-3--------------------|

 


 


 Verse 2


 

 
 e------------------------| (same thing as 1 but slower)
 B------------------------|
 G------------------------|
 D-------7-7--4-4--5-4-2--|
 A--5-5--5-5--2-2--3-2-0â??-|
 E--3-3-------------------|


Important: The song above is NOT stored on the Chordie server. The original song is hosted at www.azchords.com. Chordie works as a search engine and provides on-the-fly formatting. Chordie does not index songs against artists'/composers' will. To remove this song please click here.

This song is displayed as text-only. Transposing and tuning is only available for chordpro-songs.
Rate #1 of 2 versions

Login - add to songbook

SHARE PAGE  




You need to log in to post comments