Guitar Tabs, Chords and Lyrics
Server problems seems to be fixed. Chordie has been experiencing problems with songs disappearing. These issues now seems to be fixed, but still verifying the fix. If you find anything strange, please email admin@chordie.com.


I Want You to Want Me  Cheap Trick

[Intro] 
 
 e|---------------------------------------------------------------------------|
 B|---------------------------------------------------------------------------|
 G|---------------------------------------------------------------------------|
 D|---------------------------------------------------------------------------|
 A|-11-11--12--14--11h14-14--12--11-------------------------------------------|
 E|-0--0---0----0--0---0--0---0---0-------------------------------------------|

[Verse] 
[E] [D] [A] [E] [D] [A]  
 
 e|---------------------------------------------------------------------------|
 B|---------------------------------------------------------------------------|
 G|---------------------------------------------------------------------------|
 D|---------------------------------------------------------------------------|
 A|-------------11-11-12--14--12--------------11-11-12--14--12----------------|
 E|-------------0--0--0----0---0---------------0-0---0---0---0----------------|

[E]Going to write a th[D]ree act play
So [A]I can be with you
[E]Produce, direct, and[D] also act
But w[A]ho will I cast as you?
[Pre-Cborus] 
"I'm..." pm "...girl"
 
 e|---------------------------------------------------------------------------|
 B|---------------------------------------------------------------------------|
 G|-2--4------9---2--4--7--9---2--4------9---2--4--7-7-7-7-7-----------------|
 D|-2--4------9---2--4--7--9---2--4------9---2--4--7-7-7-7-7-----------------|
 A|-0--2--6b--7---0--2--5--7---0--2--6b--7---0--2--5-5-5-5-5-----------------|
 E|-----------0------------0-------------0-----------------------------------|

[A]I'm gonna fi[B]nd her, I'm gonna fi[E]nd her
[A]It won't be [B]easy but [D]I don't c[E]are
[A]I'll go to L[B]ondon, New York or[E] Hollywood
[A]I'll search [B]the world for a g[D]irl...
[Cborus] 
I want y[E]ou, I don't want nobody else
I want y[A]ou, I should have kn[D]own it all along
I want y[E]ou, just tell me when and where
I want y[C]ou
Why don't you [D]just give me a call?
[Verse] 
[E] [D] [A] [E] [D] [A]  
 
 e|---------------------------------------------------------------------------|
 B|---------------------------------------------------------------------------|
 G|---------------------------------------------------------------------------|
 D|---------------------------------------------------------------------------|
 A|-------------11-11-12--14--12--------------11-11-12--14--12----------------|
 E|-------------0--0--0----0---0---------------0-0---0---0---0----------------|

[E]She went west so re[D]ligiously
She[A] took a vow
[E]Not to return until[D] she learned
Wha[A]t to do and how
[Pre-Cborus] 
"I'm..." pm "...girl"
 
 e|---------------------------------------------------------------------------|
 B|---------------------------------------------------------------------------|
 G|-2--4-------9---2--4--7--9---2--4------9---2--4--7-7-7-7-7-----------------|
 D|-2--4-------9---2--4--7--9---2--4------9---2--4--7-7-7-7-7-----------------|
 A|-0--2--6b---7---0--2--5--7---0--2--6b--7---0--2--5-5-5-5-5-----------------|
 E|------------0------------0-------------0--------------------------------------|

[A]I'm gonna fi[B]nd her, I'm gonna fi[E]nd her
[A]It won't be [B]easy but [D]I don't c[E]are
[A]I'll go to L[B]ondon, New York or[E] Hollywood
[A]I'll search [B]the world for a g[D]irl...
Exactly l[C#]ike you
Uh h[A]uh, I'd rather hav[C#]e you, oh y[A]eah
[Cborus] (Until fade)

Important: The song above is NOT stored on the Chordie server. The original song is hosted at www.azchords.com. Chordie works as a search engine and provides on-the-fly formatting. Chordie does not index songs against artists'/composers' will. To remove this song please click here.

Text color:
Chord color:
Chord grids: 
Font size:    
Page size: 

A B C C# D E
Rate #1 of 9 versions

Login - add to songbook

SHARE PAGE  



You need to log in to post comments