Guitar Tabs, Chords and Lyrics
Login is temporarily disabled for some users. Do not panic. Will be back in an hour or two. DO NOT REREGISTER!!


Never Gonna Let You Down  Colbie Caillat

(Verse)
[C(add2)] [F(add2)] [G]  
 
 E|----------------------------------------------------|-----------------------------------3-------------|
 B|----------1----------------------1---------------1--|----------1---------------1--------3-------1-----|
 G|----------0-------------------0--------0------0-----|-------0--------0------0-----------0----------0--|
 D|-----0h2-----------0--2--2h3--------2------0-----0--|--2h3--------2------0-----0----------------------| x4
 A|--3-------------3-----------------------------------|--------------------------------2----------------|
 E|----------------------------------------------------|-----------------------------3----------3--------|

Low
When you're feeling low
And you just don't know where to run to
Broke
If your heart's been broke
And you feel like you're all alone
[F] [Am] [G] [F] [Am] [G]  
 
 E|------------------------------------|-------------------------------------|
 B|----------1-------1--------0--------|-------------1-----1--------0--------|
 G|-----0h2-----2p0--2-----0--0-----0--|-----0--0h2-----0--2-----0--0-----0--|
 D|--3---------------2--2-----0--0-----|--3----------------2--2-----0--0-----|
 A|------------------0-----------------|-------------------0-----------------|
 E|--1------------------------3--------|--1-------------------------3--------|

[F] [Am] [G] [F] [G]  
 
 E|-------------------------------------------------3----|
 B|-------------1-----1--------0-----1--------------0h3--|
 G|-----0--0h2-----0--2-----0-----------------0h2---0----|
 D|--3----------------2--2--------0--------3--------0----|
 A|-------------------0-----------------3-----------2----|
 E|--1-------------------------3--------1-----------3----|

If you need something to believe in
If you're looking for a light to guide you home
Just look inside
Your light is shining brighter than you know
And you should know
(Chorus)
(Just strum these, hitting the bass note of the chord on the down beats)
I'm never gonna let you dow[C]n
I'm always gonna build you [G]up
And when you're feeling [Am]lost
I will always find you [F]love
I'm never gonna walk aw[C]ay
I'm always gonna have your [G]back
And if nothing [Am]else you can always count on[F] that
When you need me
I [Am]promise I will [G]never let you down
[C(add2)] [F(add2)] [G]  
 
 E|----------------------------------------------------|------------------------------3--|
 B|----------1----------------------1---------------1--|----------1---------------1---3--|
 G|----------0-------------------0--------0------0-----|-------0--------0------0------0--|
 D|-----0h2-----------0--2--2h3--------2------0-----0--|--2h3--------2------0-----0---0--|
 A|--3-------------3-----------------------------------|------------------------------2--|
 E|----------------------------------------------------|------------------------------3--|

Oooh, oooh
(Verse 2)
[C(add2)] [F(add2)] [G]  
 
 E|----------------------------------------------------|-----------------------------------3-------------|
 B|----------1----------------------1---------------1--|----------1---------------1--------3-------1-----|
 G|----------0-------------------0--------0------0-----|-------0--------0------0-----------0----------0--|
 D|-----0h2-----------0--2--2h3--------2------0-----0--|--2h3--------2------0-----0----------------------| x2
 A|--3-------------3-----------------------------------|--------------------------------2----------------|
 E|----------------------------------------------------|-----------------------------3----------3--------|

Laugh
I will make you laugh
If you ever feel like crying
Close
I will hold you close
You won't be alone anymore
If you need s[F]omeone to bel[Am]ieve [G]in
If you're r[F]eaching for a [Am]hand to guide you [G]home
Just [F]take my hand and [Am]I won't [G]let you[F] go
I hope you [G]know
(Chorus)
I'm never gonna let you dow[C]n
I'm always gonna build you [G]up
And when you're feeling [Am]lost
I will always find you [F]love
I'm never gonna walk aw[C]ay
I'm always gonna have your [G]back
And if nothing [Am]else you can always count on[F] that
When you need me
I [Am]promise I will [G]never let you down
[C(add2)] [F(add2)] [G]  
 
 E|----------------------------------------------------|--------------------------------------------------|
 B|----------1----------------------1---------------1--|----------1---------------1--3--------------0-----|
 G|----------0-------------------0--------0------0-----|-------0--------0------0-----0-----------------0--|
 D|-----0h2-----------0--2--2h3--------2------0-----0--|--2h3--------2------0-----0------0----------------|
 A|--3-------------3-----------------------------------|-------------------------------------2------------|
 E|----------------------------------------------------|-----------------------------3-----------3--------|

Oooh, oooh
[C(add2)] [F(add2)] [G]  
 
 E|----------------------------------------------------|-----------------------------------3-------|
 B|----------1----------------------1---------------1--|----------1---------------1--------3-------|
 G|----------0-------------------0--------0------0-----|-------0--------0------0-----------0-------|
 D|-----0h2-----------0--2--2h3--------2------0-----0--|--2h3--------2------0-----0----------------|
 A|--3-------------3-----------------------------------|--------------------------------2----------|
 E|----------------------------------------------------|-----------------------------3----------3--|

Ain't never gonna let you down
Oooh, oooh
If you need s[F]omething to beli[Am]eve i[G]n
If you [F]feel you've reached the [Am]end of the road[G]
Don't [F]be afraid, I'll [Am]always [G]guide you[F] home
You should [G]know
(Chorus)
I'm never gonna let you dow[C]n
I'm always gonna build you [G]up
And when you're feeling [Am]lost
I will always find you [F]love
I'm never gonna walk aw[C]ay
I'm always gonna have your [G]back
And if nothing [Am]else you can always count on[F] that
[F]When you need me
I [Am]promise I will [G]never let you down
[C(add2)] [F(add2)] [G]  
 
 E|----------------------------------------------------|--------------------------------------------------|
 B|----------1----------------------1---------------1--|----------1---------------1--3--------------0-----|
 G|----------0-------------------0--------0------0-----|-------0--------0------0-----0-----------------0--|
 D|-----0h2-----------0--2--2h3--------2------0-----0--|--2h3--------2------0-----0------0----------------|
 A|--3-------------3-----------------------------------|-------------------------------------2------------|
 E|----------------------------------------------------|-----------------------------3-----------3--------|

Oooh, oooh
[C(add2)] [F(add2)] [G]  
 
 E|----------------------------------------------------|-----------------------------------3-------3--|
 B|----------1----------------------1---------------1--|----------1---------------1--------3-------3--|
 G|----------0-------------------0--------0------0-----|-------0--------0------0-----------0-------0--|
 D|-----0h2-----------0--2--2h3--------2------0-----0--|--2h3--------2------0-----0----------------0--|
 A|--3-------------3-----------------------------------|--------------------------------2----------2--|
 E|----------------------------------------------------|-----------------------------3----------3--3--| 


Important: The song above is NOT stored on the Chordie server. The original song is hosted at www.azchords.com. Chordie works as a search engine and provides on-the-fly formatting. Chordie does not index songs against artists'/composers' will. To remove this song please click here.

Text color:
Chord color:
Chord grids: 
Font size:    
Page size: 

Am C C(add2) F F(add2) G
Rate #1 of 2 versions

Login - add to songbook

SHARE PAGE  




You need to log in to post comments