Guitar Tabs, Chords and Lyrics
Server problems seems to be fixed. Chordie has been experiencing problems with songs disappearing. These issues now seems to be fixed, but still verifying the fix. If you find anything strange, please email admin@chordie.com.


Veil of Maya  Cynic

Look for a more detailed and constant updated version with powertab at
VEIL OF MAYA
As recorded by Cynic
(From the 1993 Album FOCUS)
Words by Paul Masvidal Music by Cynic
Gtr I (E A D G B E) - 'Paul (distortion)'
Gtr II (E A D G B E) - 'Jason (distortion)'
Gtr III (E A D G B E) - 'Paul (clean tone)'
Gtr IV (E A D G B E) - 'Jason (clean tone)'
Gtr V (E A D G B E) - 'Paul (lead)'
Q=130
[4/4] Gtr I
PM PM
H. E E +W H. E E +W
 
 ||----------------|-------------|---------------|----------||
 ||o---------------|-------------|---------------|---------o||
 ||---2------------|-------------|--2----------4-|--(4)-----||
 ||---3----------5-|--(5)--------|--2----------4-|--(4)-----||
 ||o--3----------3-|--(3)--------|--2----------2-|--(2)----o||
 ||---1-------0--1-|--(1)--------|----------0----|----------||

|
| Gtr II
| PM PM
| H. E E +W H. E E +W
 
 ||----------------|-------------|---------------|----------||
 ||o-12------------|-------------|-12---------12-|-(12)----o||
 ||--14-------x-12-|-(12)--------|-14-------x--9-|--(9)-----||
 ||--10-------x-10-|-(10)--------|--9-------x--9-|--(9)-----||
 ||o---------------|-------------|---------------|---------o||
 ||----------------|-------------|---------------|----------||

Gtr I
PM PM
H. E E +W H. E E +W
 
 |---------------|-------------|---------------|---------|
 |---------------|-------------|---------------|---------|
 |--2------------|-------------|--3----------4-|--(4)----|
 |--3----------5-|--(5)--------|--2----------4-|--(4)----|
 |--3----------3-|--(3)--------|--1----------2-|--(2)----|
 |--1-------0--1-|--(1)--------|----------0----|---------|

|
| Gtr II
| PM PM
| H. E E +W H. E E +W
 
 |---------------|-------------|---------------|---------|
 |-12------------|-------------|-12---------12-|-(12)----|
 |-14-------x-12-|-(12)--------|-11-------x--9-|--(9)----|
 |-10-------x-10-|-(10)--------|--9-------x--9-|--(9)----|
 |---------------|-------------|---------------|---------|
 |---------------|-------------|---------------|---------|

PM PM
H. E E +W H. E E +H E E E E
 
 |---------------|-------------|---------------|------------------------||
 |---------------|-------------|---------------|------------------------||
 |--2------------|-------------|--3----------4-|--(4)------4s==5---5s=7-||
 |--3----------5-|--(5)--------|--2----------4-|--(4)-------------------||
 |--3----------3-|--(3)--------|--1----------2-|--(2)------2s==3---3s=5-||
 |--1-------0--1-|--(1)--------|----------0----|------------------------||

|
| \0.5 /
| PM PM
| H. E E +W H. E E +H +Q +Q
 
 |---------------|-------------|---------------|------------------------||
 |-12------------|-------------|-12---------12-|-(12)----(12)----(12)---||
 |-14-------x-12-|-(12)--------|-11-------x--9-|--(9)-----(9)-----(9)---||
 |-10-------x-10-|-(10)--------|--9-------x--9-|--(9)-----(9)-----(9)---||
 |---------------|-------------|---------------|------------------------||
 |---------------|-------------|---------------|------------------------||

Gtr I
 
 PM----------------------------------------------

S S S S S S S S S S S S S S S S
 
 |------------------------------------------------|
 |------------------------------------------------|
 |------------------------------------------------|
 |-------------------------3--3--------2--2-------|
 |-------------3--3-------------------------------|
 |-1--1--1--1--------1--1--------1--1--------1--1-|

|
| Gtr II
 
 | PM------| PM---| PM| PM|

| S S S S S S S S S S S S S S S S
 
 |------------------------------------------------|
 |------------------------------------------------|
 |------10----12----------13-------12-------10-10-|
 |---10----10----10-10-10----10-10----10-10-------|
 |-8----------------------------------------------|
 |------------------------------------------------|
 ----------------------------------------------|

S S S S S S S S S S S S S S S S
 
 |-------------------------------------------------|
 |-------------------------------------------------|
 |-------------------------------------------------|
 |--------------5--5--------3--3--------2--2-------|
 |--------3--3--------3--3--------3--3--------3--3-|
 |--1--1-------------------------------------------|

|
| PM PM| PM---| PM| PM|
| S S S S S S S S S S S S S S S S
 
 |-------------------------------------------------|
 |-------------------------13-------12-------------|
 |----10-------12-------------10-------------12-12-|
 |-10----10-10----10-10-10-------10----10-10-------|
 |-------------------------------------------------|
 |-------------------------------------------------|
 PM----| PM-----| PM------| PM| PM|

S S S S E S S S S S S E S S S S S S E S S S S E S S E
 
 |------------------------------------|--------------------------------------|
 |------------------------------------|--------------------------------------|
 |----------3------------3h=4-3-------|-----4s5--4--------5s7-5---------9----|
 |----------2------------2----2-------|--------------------------------------|
 |----------1------------1------------|-----2s3--2--------3s5-3---------7----|
 |-0-0-0-0------0-0--0-0----------0-0-|-0-0----------0-0-----------0-0-------|

|
 
 | PM--| PM--| PM| PM| PM PM| PM--| PM| PM|

| S S S S S S S S S S S S S S S S S S S S S S S S S S S S S S S S
 
 |------------------------------------|--------------------------------------|
 |------------------------------------|------------------12-----11-----------|
 |-----9---11-------12-----11-----9-9-|---9-----11----------9----------11-11-|
 |---9---9----9-9-9----9-9----9-9-----|-9---9-9----9-9-9------9----9-9-------|
 |-7----------------------------------|--------------------------------------|
 |------------------------------------|--------------------------------------|
 PM----------------------------------------------

S S S S S S S S S S S S S S S S
 
 |------------------------------------------------|
 |------------------------------------------------|
 |------------------------------------------------|
 |-------------------------3--3--------2--2-------|
 |-------------3--3-------------------------------|
 |-1--1--1--1--------1--1--------1--1--------1--1-|

|
 
 | PM------| PM---| PM| PM|

| S S S S S S S S S S S S S S S S
 
 |------------------------------------------------|
 |------------------------------------------------|
 |------10----12----------13-------12-------10-10-|
 |---10----10----10-10-10----10-10----10-10-------|
 |-8----------------------------------------------|
 |------------------------------------------------|
 ----------------------------------------------|

S S S S S S S S S S S S S S S S
 
 |-------------------------------------------------|
 |-------------------------------------------------|
 |-------------------------------------------------|
 |--------------5--5--------3--3--------2--2-------|
 |--------3--3--------3--3--------3--3--------3--3-|
 |--1--1-------------------------------------------|

|
| PM PM| PM---| PM| PM|
| S S S S S S S S S S S S S S S S
 
 |-------------------------------------------------|
 |-------------------------13-------12-------------|
 |----10-------12-------------10-------------12-12-|
 |-10----10-10----10-10-10-------10----10-10-------|
 |-------------------------------------------------|
 |-------------------------------------------------|
 PM----| PM----| PM------| PM| PM|

S S S S E S S S S S S E S S S S S S E S S S S E S S E
 
 |-------------------------------|-----------------------------||
 |-------------------------------|-----------------------------||
 |---------3----------3h4-3------|-----4s5-4------5s7-5------9-||
 |---------2----------2---2------|-----------------------------||
 |---------1----------1----------|-----2s3-2------3s5-3------7-||
 |-0-0-0-0----0-0-0-0--------0-0-|-0-0--------0-0--------0-0---||

|
 
 | PM----| PM----| PM------| PM| PM|

| S S S S E S S S S S S E S S S S S S E S S S S E S S E
 
 |-------------------------------|-----------------------------||
 |-------------------------------|-----------------------------||
 |---------3----------3h4-3------|-----4s5-4------5s7-5------9-||
 |---------2----------2---2------|-----4s5-4------5s7-5------9-||
 |---------1----------1----------|-----2s3-2------3s5-3------7-||
 |-0-0-0-0----0-0-0-0--------0-0-|-0-0--------0-0--------0-0---||

Gtr I
 
 PM----| PM| PM| PM----| PM| PM-----|

S S S S Q S S S S S S E S S S S S S S S S S S S Q
 
 |-------------------------------------|-----------------------------------|
 |-------------------------------------|-----------------------------------|
 |-------------------------------------|-----------------------------------|
 |-------------------------------------|------------------------------3----|
 |-------------------------------------|------------------------------2----|
 |--0-0-0--0------------0-0----0-0-----|--0-0-0--0---0--0---0--0-0-1--1----|

|
| Gtr II
 
 | PM| PM------| PM| PM--| PM| PM| PM| PM|

| S S S S S S S S S S S S S S S S S S S S S S S S S S S S Q
 
 |-------------------------------------|---------------14-----14-----------|
 |-12-----12-----------12-----12-------|-12-----12-------------------13\---|
 |----9-9----9-9-9-9-9----9-9----9-9-9-|----9-9----9-9----9-9----9-9--9\---|
 |-------------------------------------|------------------------------9\---|
 |-------------------------------------|-----------------------------------|
 |-------------------------------------|-----------------------------------|

PM----| PM| PM|
S S S S Q S S S S S S E
 
 |-------------------------------------|
 |-------------------------------------|
 |-------------------------------------|
 |-------------------------------------|
 |-------------------------------------|
 |--0-0-0--0------------0-0----0-0-----|

|
 
 | PM| PM------| PM| PM--|

| S S S S S S S S S S S S S S S S
 
 |-------------------------------------|
 |-12-----12-----------12-----12-------|
 |----9-9----9-9-9-9-9----9-9----9-9-9-|
 |-------------------------------------|
 |-------------------------------------|
 |-------------------------------------|
 PM----| PM| PM------|

S S S S S S S S S S S S Q
 
 |-----------------------------------------|
 |-----------------------------------------|
 |-----------------------------------------|
 |--------------------------------5--------|
 |--------------------------------4--------|
 |--0-0-0--0---0--0---0--0--0--3--3--------|

|
| PM| PM| PM| PM| PM
| S S S S S S S S S S S S S S E
 
 |---------------14-----15-------16----17\-|
 |-12-----12-------------------------------|
 |----9-9----9-9----9-9----10-10----11-----|
 |-----------------------------------------|
 |-----------------------------------------|
 |-----------------------------------------|
 PM----| PM| PM| PM----| PM| PM-----|

S S S S Q S S S S S S E S S S S S S S S S S S S Q
 
 |-------------------------------------|-----------------------------------|
 |-------------------------------------|-----------------------------------|
 |-------------------------------------|-----------------------------------|
 |-------------------------------------|------------------------------3----|
 |-------------------------------------|------------------------------2----|
 |--0-0-0--0------------0-0----0-0-----|--0-0-0--0---0--0---0--0-0-1--1----|

|
 
 | PM| PM------| PM| PM--| PM| PM| PM| PM|

| S S S S S S S S S S S S S S S S S S S S S S S S S S S S Q
 
 |-------------------------------------|---------------14-----14-----------|
 |-12-----12-----------12-----12-------|-12-----12-------------------13\---|
 |----9-9----9-9-9-9-9----9-9----9-9-9-|----9-9----9-9----9-9----9-9--9\---|
 |-------------------------------------|------------------------------9\---|
 |-------------------------------------|-----------------------------------|
 |-------------------------------------|-----------------------------------|
 PM----| PM| PM| PM----| PM| PM-----|

S S S S Q S S S S S S E S S S S S S S S S S S S Q
 
 |-------------------------------------|-----------------------------------||
 |-------------------------------------|-----------------------------------||
 |-------------------------------------|------------------------------7\---||
 |-------------------------------------|------------------------------6\---||
 |-------------------------------------|------------------------------5\---||
 |--0-0-0--0------------0-0----0-0-----|--0-0-0--0---0--0---0--0-0-0-------||

|
 
 | PM| PM------| PM| PM--| PM| PM| PM| PM|

| S S S S S S S S S S S S S S S S S S S S S S S S S S S S Q
 
 |-------------------------------------|---------------14-----14-----17\---||
 |-12-----12-----------12-----12-------|-12-----12-------------------12\---||
 |----9-9----9-9-9-9-9----9-9----9-9-9-|----9-9----9-9----9-9----9-9-12\---||
 |-------------------------------------|-----------------------------------||
 |-------------------------------------|-----------------------------------||
 |-------------------------------------|-----------------------------------||

Gtr III
[E] [E] [E] [E] [E] [E] [E] [E] [E] [E] [E] [E] [E] [E] [E] [E]  
 
 |--7----------------------------7-|-------7-------------------------8-|
 |--7----8----7------------------8-|-------8----7--------------------7-|
 |-------7----7--------9--7--------|------------7-------9----7---------|
 |---------------------------------|-----------------------------------|
 |---------------------------------|-----------------------------------|
 |--0--------------8---------10----|--0--------------8-----------10----|

|
| Gtr IV
| ~
| a Q +E S S H +E E +E Q Q.
 
 |---------------------------------|-----------------------------------|
 |--8s10----(10)\------------------|-------8---(8)s=12-----^12---------|
 |-----------------9p7-9-----------|-(9)-------------------^-x---------|
 |-10s12----(12)\------------------|------10--(10)s=14-----^14---------|
 |---------------------------------|-----------------------------------|
 |---------------------------------|-----------------------------------|

[E] [E] [E] [E] [E] [E] [E] [E] [E] [E] [E] [E] [E] [E] [E] [E]  
 
 |---7-----------------------7-|-------7------------------8---|
 |---7---8--7----------------8-|-------8--7---------------7---|
 |-------7--7-----9--7---------|----------7-----9--7----------|
 |-----------------------------|------------------------------|
 |-----------------------------|------------------------------|
 |---0---------8--------10-----|---0---------8--------10------|

|
| +E E E E E E E E +E E E E E E E E
 
 |-------------------7---------|----------------2---------3---|
 |-(12)-----------7------8-----|----------5--------5----------|
 |----------7---------------11-|-(11)--4-----4---------4------|
 |-(14)--9-----9---------------|------------------------------|
 |-----------------------------|------------------------------|
 |-----------------------------|------------------------------|

[E] [E] [E] [E] [E] [E] [E] [E] [E] [E] [E] [E] [E] [E] [E] [E]  
 
 |--7------------------------7-|------7-------------------------------|
 |--7---8---7----------------8-|------8---7---------------------------|
 |------7---7------9--7--------|----------7---------9----7----7-------|
 |-----------------------------|------------------------------------7-|
 |-----------------------------|--------------------------------------|
 |--0-----------8--------10----|--0-----------8--------------10-------|

|
| +E E H. +Q. E. E. E. S
 
 |-(3)-----!7------------------|-(7)-----!7-----!8-----!10------!10---|
 |---------!8------------------|-(8)-----!8-----!8-----!-8------!-8---|
 |---------!7------------------|-(7)----------------------------------|
 |------9----------------------|--------------------------------------|
 |-----------------------------|--------------------------------------|
 |-----------------------------|--------------------------------------|

E E E E E E E E +E Q Q Q S S
 
 |-----------------------------------|---------------------------------|
 |-----------------------------------|---------------------------------|
 |---------9--9-------7--------------|---------------------------------|
 |------------7----------7--------10-|-(10)--9--------7-----9----9h10--|
 |-----------------------------------|---------------------------------|
 |---8-----------10-----------8------|-------8-------------10----------|

|
| ~~~ ~~~
| +E Q Q. E E +W
 
 |-(10)--!10s====12---------!12--^-8-|-----------(8)-------------------|
 |--(8)--!-8s====10---------!10--^10-|----------(10)-------------------|
 |-----------------------------------|---------------------------------|
 |-----------------------------------|---------------------------------|
 |-----------------------------------|---------------------------------|
 |-----------------------------------|---------------------------------|

[E] [E] [E] [E] [E] [E] [E] [E] [E] [E] [E] [E] [E] [E] [E] [E]  
 
 |----------------------------------------7---|-----7------------------------|
 |--------8-----7-------------------------8---|-----8--7---------------------|
 |--------7-----7----------9-----7------------|--------7---------9--7---7----|
 |--9-----------------------------------------|----------------------------7-|
 |--------------------------------------------|------------------------------|
 |--0----------------8---------------10-------|--0--------8------------10----|

|
| ~~
| S S S S E S S S E S S S S S H +H
 
 |-14-------14---------------12\------------7-|-10----------(10)-------------|
 |----12-------12\-----10-----------------8---|------------------------------|
 |-------13---------11----11-------9----9-----|------------------------------|
 |-----------------------------------10-------|------------------------------|
 |--------------------------------------------|------------------------------|
 |--------------------------------------------|------------------------------|

E E E E E E E E +E Q Q Q S S
 
 |--------------------------------|--------------------------------|
 |--------------------------------|--------------------------------|
 |--------9---9------7------------|--------------------------------|
 |------------7---------7------10-|-(10)--9----7--------9----7-----|
 |--------------------------------|----------------------------h10-|
 |-8-------------10---------8-----|-------8------------10----------|

|
| ~~~ ~~
| a H. E E +Q. S S E Q S S
 
 |---^10s12----------------12--10-|-(10)---------8-10s=12----5s==3-|
 |---^-8--------------------------|------------8-------------------|
 |---^-9--------------------------|--------------------------------|
 |--------------------------------|--------------------------------|
 |--------------------------------|--------------------------------|
 |--------------------------------|--------------------------------|

S S E E E E E E E E E E E E E E E
 
 |----------------------------7-|----7------------------------|
 |---------8-------7----------8-|----8---7--------------------|
 |-----7---7-------7--7---------|--------7------9---7----7----|
 |-7h9--------------------7-----|---------------------------7-|
 |------------------------------|-----------------------------|
 |-0-----------10---------------|-0----------8----------10----|

|
| Gtr II
| ~ ~ ~ ~
| S S +Q. Q +Q Q +E Q +E e e
 
 |-5s7----(7)-------------------|-----------------------------|
 |-7s8----(8)-------------------|-----------------------------|
 |-----------------4-----(4)----|-----------------------------|
 |------------------------------|-5-----(5)--4-----(4)--------|
 |------------------------------|------------------------2--3-|
 |------------------------------|-----------------------------|

E E E E E E E E +E Q Q Q S S
 
 |----------------------------|----------------------------------|
 |----------------------------|----------------------------------|
 |----9--9-------7------------|----------------------------------|
 |-------7----------7------10-|-(10)-9------7-------7------------|
 |----------------------------|----------------------------9h10--|
 |-8--------10----------8-----|------8-------------10------------|

|
| ~ ~~ ~~
| Q Q Q Q Q Q Q Q
 
 |----------------------------|----------------------------------|
 |----------------------------|----------------13------12--------|
 |----------------------------|---7s====11-----------------------|
 |----------------------------|----------------------------------|
 |-2s====5------\2s====12-----|----------------------------------|
 |----------------------------|----------------------------------|

Gtr III
E E E Q E E E
 
 |------------------------------|
 |------5---------------5-------|
 |---------4---------------4----|
 |-------------0----------------|
 |--2-------------------------0-|
 |------------------------------|

|
| Gtr II
| ~~
| E Q S S H
 
 |-14h=15-----14p12h14----------|
 |------------------------------|
 |------------------------------|
 |------------------------------|
 |------------------------------|
 |------------------------------|

+E E E E E E E E E E E Q E Q
 
 |-------------5--3-----3----|-----------------------------||
 |-------5-----5--5--5-----5-|------5--------------5-------||
 |----------4----------------|----------4-------------4----||
 |---------------------------|--------------2--------------||
 |--(0)----------------------|--2--------------------------||
 |---------------------------|-----------------------------||

|
| +W E E E E E E Q
 
 |-(14)----------------------|-------------10--9-----------||
 |---------------------------|-12--10--12---------10-------||
 |---------------------------|------------------------9\---||
 |---------------------------|-----------------------------||
 |---------------------------|-----------------------------||
 |---------------------------|-----------------------------||

Gtr III
E E E E E E E E E E E E E E E E E E E E E E E E E E E E E E Q
 
 |------------------|-------------0-----|------------------|---------------0--|
 |------------------|---------------1---|------------------|------------------|
 |------3-----3-----|-------3---------4-|------3-----3---3-|-------3-----3----|
 |----2-----2---2---|-----2-----2-------|----2-----2-------|-----2---2--------|
 |--------1-------1-|---------1---------|--------1-----1---|-----------1------|
 |--0---------------|--0----------------|--0---------------|--0---------------|

|
| Gtr IV
| W +W W +W
 
 |-^0---------------|-(0)---------------|-^0---------------|-(0)--------------|
 |-^0---------------|-(0)---------------|-^0---------------|-(0)--------------|
 |-^3---------------|-(3)---------------|-^3---------------|-(3)--------------|
 |-^2---------------|-(2)---------------|-^2---------------|-(2)--------------|
 |-^1---------------|-(1)---------------|-^1---------------|-(1)--------------|
 |-^0---------------|-(0)---------------|-^0---------------|-(0)--------------|

E E E E E E E E E E E E E E E E E E E E E E E E E E E E E E Q
 
 |------------------|---------0---------|------------------|---------------0--|
 |------------------|-----------1---1---|------------------|------------------|
 |------3-----3-----|-------3---------4-|------3-----3-----|-------3-----3----|
 |----2-----2---2---|-----2-------2-----|----2-----2-----2-|-----2---2--------|
 |--------1-------1-|-------------------|--------1-----1---|-----------1------|
 |--0---------------|--0----------------|--0---------------|--0---------------|

|
| W +W W +W
 
 |-^0---------------|-(0)---------------|-^0---------------|-(0)--------------|
 |-^0---------------|-(0)---------------|-^0---------------|-(0)--------------|
 |-^3---------------|-(3)---------------|-^3---------------|-(3)--------------|
 |-^2---------------|-(2)---------------|-^2---------------|-(2)--------------|
 |-^1---------------|-(1)---------------|-^1---------------|-(1)--------------|
 |-^0---------------|-(0)---------------|-^0---------------|-(0)--------------|

E E E E E E E E E E E E E E E E E E E E E E E E E E E E E E Q
 
 |------------------|-------------0-----|------------------|---------------0--||
 |------------------|---------------1---|------------------|------------------||
 |------3-----3-----|-------3---------4-|------3-----3---3-|-------3-----3----||
 |----2-----2---2---|-----2-----2-------|----2-----2-------|-----2---2--------||
 |--------1-------1-|---------1---------|--------1-----1---|-----------1------||
 |--0---------------|--0----------------|--0---------------|--0---------------||

|
| W +W W +W
 
 |-^0---------------|-(0)---------------|-^0---------------|-(0)--------------||
 |-^0---------------|-(0)---------------|-^0---------------|-(0)--------------||
 |-^3---------------|-(3)---------------|-^3---------------|-(3)--------------||
 |-^2---------------|-(2)---------------|-^2---------------|-(2)--------------||
 |-^1---------------|-(1)---------------|-^1---------------|-(1)--------------||
 |-^0---------------|-(0)---------------|-^0---------------|-(0)--------------||

Gtrs I, II
PM PM PM| PM PM PM
E E E E E E S S E E E E E E E E E
 
 |--------------------||------------------|
 |--------------------||o-----------------|
 |-----10-----9-------||------3-----3-----|
 |---9------8-------5-||----2-----2-----2-|
 |------------------5-||o-----------------|
 |-8------7-----3-3-3-||--0-----1-----1---|

PM PM PM PM PM PM|
E E E E E E E E E E E E E E S S E
 
 |------------------||--------------------||
 |-----------------o||--------------------||
 |-----3-----3------||-----10-----9-------||
 |---2-----2-----2--||---9------8-------5-||
 |-----------------o||------------------5-||
 |-0-----1-----1----||-8------7-----3-3-3-||

Gtr I
PM PM
H. E E +W H. E E +W
 
 |---------------|-------------|---------------|---------|
 |---------------|-------------|---------------|---------|
 |--2------------|-------------|--3----------4-|--(4)----|
 |--3----------5-|--(5)--------|--2----------4-|--(4)----|
 |--3----------3-|--(3)--------|--1----------2-|--(2)----|
 |--1-------0--1-|--(1)--------|----------0----|---------|

|
| Gtr II
| PM PM
| H. E E +W H. E E +W
 
 |---------------|-------------|---------------|---------|
 |-12------------|-------------|-12---------12-|-(12)----|
 |-14-------x-12-|-(12)--------|-11-------x--9-|--(9)----|
 |-10-------x-10-|-(10)--------|--9-------x--9-|--(9)----|
 |---------------|-------------|---------------|---------|
 |---------------|-------------|---------------|---------|

PM PM
H. E E +W H. E E +H E E E E
 
 |---------------|-------------|---------------|------------------------||
 |---------------|-------------|---------------|------------------------||
 |--2------------|-------------|--3----------4-|--(4)------4s==5---5s=7-||
 |--3----------5-|--(5)--------|--2----------4-|--(4)-------------------||
 |--3----------3-|--(3)--------|--1----------2-|--(2)------2s==3---3s=5-||
 |--1-------0--1-|--(1)--------|----------0----|------------------------||

|
| \0.5 /
| PM PM
| H. E E +W H. E E +H +Q +Q
 
 |---------------|-------------|---------------|------------------------||
 |-12------------|-------------|-12---------12-|-(12)----(12)----(12)---||
 |-14-------x-12-|-(12)--------|-11-------x--9-|--(9)-----(9)-----(9)---||
 |-10-------x-10-|-(10)--------|--9-------x--9-|--(9)-----(9)-----(9)---||
 |---------------|-------------|---------------|------------------------||
 |---------------|-------------|---------------|------------------------||
 PM----------------------------------------------

S S S S S S S S S S S S S S S S
 
 |------------------------------------------------|
 |------------------------------------------------|
 |------------------------------------------------|
 |-------------------------3--3--------2--2-------|
 |-------------3--3-------------------------------|
 |-1--1--1--1--------1--1--------1--1--------1--1-|

|
 
 | PM------| PM---| PM| PM|

| S S S S S S S S S S S S S S S S
 
 |------------------------------------------------|
 |------------------------------------------------|
 |------10----12----------13-------12-------10-10-|
 |---10----10----10-10-10----10-10----10-10-------|
 |-8----------------------------------------------|
 |------------------------------------------------|
 ----------------------------------------------|

S S S S S S S S S S S S S S S S
 
 |-------------------------------------------------|
 |-------------------------------------------------|
 |-------------------------------------------------|
 |--------------5--5--------3--3--------2--2-------|
 |--------3--3--------3--3--------3--3--------3--3-|
 |--1--1-------------------------------------------|

|
| PM PM| PM---| PM| PM|
| S S S S S S S S S S S S S S S S
 
 |-------------------------------------------------|
 |-------------------------13-------12-------------|
 |----10-------12-------------10-------------12-12-|
 |-10----10-10----10-10-10-------10----10-10-------|
 |-------------------------------------------------|
 |-------------------------------------------------|
 PM----| PM-----| PM------| PM| PM|

S S S S E S S S S S S E S S S S S S E S S S S E S S E
 
 |------------------------------------|--------------------------------------|
 |------------------------------------|--------------------------------------|
 |----------3------------3h=4-3-------|-----4s5--4--------5s7-5---------9----|
 |----------2------------2----2-------|--------------------------------------|
 |----------1------------1------------|-----2s3--2--------3s5-3---------7----|
 |-0-0-0-0------0-0--0-0----------0-0-|-0-0----------0-0-----------0-0-------|

|
 
 | PM----| PM--| PM| PM| PM PM| PM--| PM| PM|

| S S S S S S S S S S S S S S S S S S S S S S S S S S S S S S S S
 
 |------------------------------------|--------------------------------------|
 |------------------------------------|------------------12-----11-----------|
 |-----9---11-------12-----11-----9-9-|---9-----11----------9----------11-11-|
 |---9---9----9-9-9----9-9----9-9-----|-9---9-9----9-9-9------9----9-9-------|
 |-7----------------------------------|--------------------------------------|
 |------------------------------------|--------------------------------------|
 PM----------------------------------------------

S S S S S S S S S S S S S S S S
 
 |------------------------------------------------|
 |------------------------------------------------|
 |------------------------------------------------|
 |-------------------------3--3--------2--2-------|
 |-------------3--3-------------------------------|
 |-1--1--1--1--------1--1--------1--1--------1--1-|

|
 
 | PM------| PM---| PM| PM|

| S S S S S S S S S S S S S S S S
 
 |------------------------------------------------|
 |------------------------------------------------|
 |------10----12----------13-------12-------10-10-|
 |---10----10----10-10-10----10-10----10-10-------|
 |-8----------------------------------------------|
 |------------------------------------------------|
 ----------------------------------------------|

S S S S S S S S S S S S S S S S
 
 |-------------------------------------------------|
 |-------------------------------------------------|
 |-------------------------------------------------|
 |--------------5--5--------3--3--------2--2-------|
 |--------3--3--------3--3--------3--3--------3--3-|
 |--1--1-------------------------------------------|

|
| PM PM| PM---| PM| PM|
| S S S S S S S S S S S S S S S S
 
 |-------------------------------------------------|
 |-------------------------13-------12-------------|
 |----10-------12-------------10-------------12-12-|
 |-10----10-10----10-10-10-------10----10-10-------|
 |-------------------------------------------------|
 |-------------------------------------------------|
 PM----| PM----| PM------| PM| PM|

S S S S E S S S S S S E S S S S S S E S S S S E S S E
 
 |-----------------------------|---------------------------||
 |-----------------------------|---------------------------||
 |---------3---------3h4-3-----|-----4s5-4-----5s7-5-----9-||
 |---------2---------2---2-----|---------------------------||
 |---------1---------1---------|-----2s3-2-----3s5-3-----7-||
 |-0-0-0-0---0-0-0-0-------0-0-|-0-0-------0-0-------0-0---||

|
 
 | PM----| PM----| PM------| PM| PM|

| S S S S E S S S S S S E S S S S S S E S S S S E S S E
 
 |-----------------------------|---------------------------||
 |-----------------------------|---------------------------||
 |---------3---------3h4-3-----|-----4s5-4-----5s7-5-----9-||
 |---------2---------2---2-----|-----4s5-4-----5s7-5-----9-||
 |---------1---------1---------|-----2s3-2-----3s5-3-----7-||
 |-0-0-0-0---0-0-0-0-------0-0-|-0-0-------0-0-------0-0---||
 PM----| PM| PM| PM----| PM| PM-----|

S S S S Q S S S S S S E S S S S S S S S S S S S Q
 
 |-------------------------------------|-----------------------------------|
 |-------------------------------------|-----------------------------------|
 |-------------------------------------|-----------------------------------|
 |-------------------------------------|------------------------------3----|
 |-------------------------------------|------------------------------2----|
 |--0-0-0--0------------0-0----0-0-----|--0-0-0--0---0--0---0--0-0-1--1----|

|
 
 | PM| PM------| PM| PM--| PM| PM| PM| PM|

| S S S S S S S S S S S S S S S S S S S S S S S S S S S S Q
 
 |-------------------------------------|---------------14-----14-----------|
 |-12-----12-----------12-----12-------|-12-----12-------------------13\---|
 |----9-9----9-9-9-9-9----9-9----9-9-9-|----9-9----9-9----9-9----9-9--9\---|
 |-------------------------------------|------------------------------9\---|
 |-------------------------------------|-----------------------------------|
 |-------------------------------------|-----------------------------------|
 PM----| PM| PM| PM----| PM| PM-----|

S S S S Q S S S S S S E S S S S S S S S S S S S Q
 
 |-------------------------------------|-----------------------------------|
 |-------------------------------------|-----------------------------------|
 |-------------------------------------|-----------------------------------|
 |-------------------------------------|------------------------------5----|
 |-------------------------------------|------------------------------4----|
 |--0-0-0--0------------0-0----0-0-----|--0-0-0--0---0--0---0--0-0-3--3----|

|
 
 | PM| PM------| PM| PM--| PM| PM| PM| PM|

| S S S S S S S S S S S S S S S S S S S S S S S S S S S S Q
 
 |-------------------------------------|---------------14-----14-----------|
 |-12-----12-----------12-----12-------|-12-----12-------------------15\---|
 |----9-9----9-9-9-9-9----9-9----9-9-9-|----9-9----9-9----9-9----9-9-12\---|
 |-------------------------------------|-----------------------------12\---|
 |-------------------------------------|-----------------------------------|
 |-------------------------------------|-----------------------------------|
 PM----| PM| PM| PM----| PM| PM-----|

S S S S Q S S S S S S E S S S S S S S S S S S S Q
 
 |-------------------------------------|-----------------------------------|
 |-------------------------------------|-----------------------------------|
 |-------------------------------------|-----------------------------------|
 |-------------------------------------|------------------------------3----|
 |-------------------------------------|------------------------------2----|
 |--0-0-0--0------------0-0----0-0-----|--0-0-0--0---0--0---0--0-0-1--1----|

|
 
 | PM| PM------| PM| PM--| PM| PM| PM| PM|

| S S S S S S S S S S S S S S S S S S S S S S S S S S S S Q
 
 |-------------------------------------|---------------14-----14-----------|
 |-12-----12-----------12-----12-------|-12-----12-------------------13\---|
 |----9-9----9-9-9-9-9----9-9----9-9-9-|----9-9----9-9----9-9----9-9--9\---|
 |-------------------------------------|------------------------------9\---|
 |-------------------------------------|-----------------------------------|
 |-------------------------------------|-----------------------------------|

Gtr I
PM----| PM| PM|
S S S S Q S S S S S S E
 
 |-------------------------------------|
 |-------------------------------------|
 |-------------------------------------|
 |-------------------------------------|
 |-------------------------------------|
 |--0-0-0--0------------0-0----0-0-----|

|
| Gtr II
 
 | PM| PM------| PM| PM--|

| S S S S S S S S S S S S S S S S
 
 |-------------------------------------|
 |-12-----12-----------12-----12-------|
 |----9-9----9-9-9-9-9----9-9----9-9-9-|
 |-------------------------------------|
 |-------------------------------------|
 |-------------------------------------|

|
| Gtr V
| W
 
 |-------------------------------------|
 |-------------------------------------|
 |-------------------------------------|
 |-------------------------------------|
 |-------------------------------------|
 |-------------------------------------|
 PM----| PM| PM-------|

S S S S S S S S S S S S Q
 
 |----------------------------------------------||
 |----------------------------------------------||
 |----------------------------------7\----------||
 |----------------------------------6\----------||
 |----------------------------------5\----------||
 |--0-0-0--0---0--0----0---0--0--0--------------||

|
| PM| PM| PM| PM| PM
| S S S S S S S S S S S S S S E
 
 |---------------14-------15-------16------17\--||
 |-12-----12------------------------------------||
 |----9-9----9-9----9--9-----10-10-----11-------||
 |----------------------------------------------||
 |----------------------------------------------||
 |----------------------------------------------||

|
| /
| H Q. +E
 
 |----------------------------------------------||
 |----------------------------------------------||
 |-------------------------------------()-||
 |----------------------------------------------||
 |----------------------------------------------||
 |----------------------------------------------||

Gtr V
~~ ~~
 
 |-----3-----|

E E E S S S S E +E E +E
 
 |----------------------------------24-----(24)-----22----(22)----|
 |-12h===14h===15h=19p=15p=14p=12/--------------------------------|
 |----------------------------------------------------------------|
 |----------------------------------------------------------------|
 |----------------------------------------------------------------|
 |----------------------------------------------------------------|

|
| Gtr II
| S S S S S S S S S S S S E S S
 
 |----------------------------------------------------------------|
 |----------------------------------------------------------------|
 |----------------------------------------------------------------|
 |--9-------9-------9-----------9-------9------------9------9-----|
 |--9-------9-------9-----------9-------9------------9------9-----|
 |--7--0----7---0---7---0---0---7----0--7----0---0---7------7---0-|

~~
 
 |-----3-----| |---3---|

E E E +S. T S S E S S S S S S S
 
 |-21---------------------------------------------------------------------|
 |-------22-----------------10S==17h19-20----19p=17-----------------------|
 |-------------21--(21)\--------------------------------------------------|
 |---------------------------------------------------20--------------19---|
 |-----------------------------------------------------------19p=17-------|
 |-------------------------------------------------------17---------------|

|
| S S S S S S S S S S S S E S S
 
 |------------------------------------------------------------------------|
 |------------------------------------------------------------------------|
 |------------------------------------------------------------------------|
 |--7-------7--------7---------------7--------7-----------7-------7-------|
 |--7-------7--------7---------------7--------7-----------7-------7-------|
 |--5--0----5---0----5----0----0-----5----0---5---0---0---5-------5---0---|

[5/4] \3 \3_____________/
E. Q +S Q Q +Q
 
 |---------------------------------------------17-----------(17)-------|
 |---------------------------------------------------------------------|
 |-----------17-----(17)--------20------------(20)----------(20)-------|
 |-16-------(16)----(16)-------(16)------------------------------------|
 |---------------------------------------------------------------------|
 |---------------------------------------------------------------------|

|
| E. E. E E E. E. E E
 
 |---------------------------------------------------------------------|
 |---------------------------------------------------------------------|
 |-------------------------------3----------------------------------5--|
 |--5---------5-----------3------3------5-----------5---------3-----5--|
 |--5---------5-----------3------1------5-----------5---------3-----3--|
 |--3---------3-----------1-------------3-----------3---------1--------|
 |--3--| |--3--| |--3--| |--3--|

S S S S S S S S S S S S S S S S S S S S S. S S.
 
 |------------------------12h=15h=17h=19p17p15p12--------------------------------------------|
 |---------------12---15--------------------------12h15h17p15p12----------17/--16p-----------|
 |-----------15--------------------------------------------------17p12h15-----------12/------|
 |--12---17----------------------------------------------------------------------------------|
 |-------------------------------------------------------------------------------------------|
 |-------------------------------------------------------------------------------------------|

|
| E. E. E E E. E. E E
 
 |-------------------------------------------------------------------------------------------|
 |-------------------------------------------------------------------------------------------|
 |-------------------------------------3---------------------------------------------------5-|
 |---5------------5------------3-------3-----------5-----------------5---------------3-----5-|
 |---5------------5------------3-------1-----------5-----------------5---------------3-----3-|
 |---3------------3------------1-------------------3-----------------3---------------1-------|

[4/4]  
 
 |-----3-----| |-----3------|

Q. S S E E E E E +E
 
 |-19b20.5--------------19--17----------------------------------------|
 |-19b20.5--------------19--17--19----18----17------------------------|
 |------------------------------18----17----16----19----18----(18)\---|
 |------------------------------------------------19----18----(18)\---|
 |--------------------------------------------------------------------|
 |--------------------------------------------------------------------|

|
| S S S S S S S S S S S S E S S
 
 |--------------------------------------------------------------------|
 |--------------------------------------------------------------------|
 |--------------------------------------------------------------------|
 |--9----------9-----9-----------9-------9-----------9------9---------|
 |--9----------9-----9-----------9-------9-----------9------9---------|
 |--7-------0--7--0--7---0---0---7--0----7---0--0----7------7-------0-|
 |-3-| |-3--| |-3-| |-3-|

S S S S S S S S S S S S S S S S S S S S
 
 |-10p=9p7h9h15/----9p7-------------------------------------------|
 |----------------------------------------------------------------|
 |----------------------10p7h14/----10p9p7S6h7p6h7----------------|
 |-------------------------------------------------9p7p6\---------|
 |----------------------------------------------------------------|
 |----------------------------------------------------------------|

|
| S S S S S S S S S S S S E S S
 
 |----------------------------------------------------------------|
 |----------------------------------------------------------------|
 |----------------------------------------------------------------|
 |--7------7--------7-------------7--------7-----------7-----7----|
 |--7------7--------7-------------7--------7-----------7-----7----|
 |--5--0---5-----0--5----0----0---5----0---5---0---0---5-----5--0-|

[5/4]  
 
 |-------5-------| |-----5------| |------5------| |------5-------| |------5------|

S S S S S S. S S S S S E +T S S S S S S S S S S S
 
 |-----------------17---------------------19----(19)-17------------------------------------|
 |-----------15------------------------17---------------19------------------------------19-|
 |--------17----------------------19-----------------------17------------------------21----|
 |-----15----------------------17--------------------------------19-------------19---------|
 |-17-----------------------19--------------------------------------17-------21------------|
 |-----------------------17--------------------------------------------19-19---------------|

|
| E. E. E E E. E. E E
 
 |-----------------------------------------------------------------------------------------|
 |-----------------------------------------------------------------------------------------|
 |-----------------------------------3---------------------------------------------5-------|
 |--5-----------5------------3-------3-------5----------------5------------3-------5-------|
 |--5-----------5------------3-------1-------5----------------5------------3-------3-------|
 |--3-----------3------------1---------------3----------------3------------1---------------|
 |-----3-----| |----3-----|

E. +E. S E E E E E E S E E
 
 |-21b22r========(21)p=19---------------------------------------12h=17--|
 |--------------------------19--------------19---------------15---------|
 |-------------------------------21---------------17s==14---------------|
 |--------------------------------------19------------------------------|
 |----------------------------------------------------------------------|
 |----------------------------------------------------------------------|

|
| E. E. E E E. E. E E
 
 |----------------------------------------------------------------------|
 |----------------------------------------------------------------------|
 |---------------------------3-----------------------------------5---

Important: The song above is NOT stored on the Chordie server. The original song is hosted at www.azchords.com. Chordie works as a search engine and provides on-the-fly formatting. Chordie does not index songs against artists'/composers' will. To remove this song please click here.

Text color:
Chord color:
Chord grids: 
Font size:    
Page size: 

E
Rate #1 of 1 versions

Jango Player

Login - add to songbook

SHARE PAGE  



You need to log in to post comments