Guitar Tabs, Chords and Lyrics
Login is temporarily disabled for some users. Do not panic. Will be back in an hour or two. DO NOT REREGISTER!!


Just Try  The Dandy Warhols

 
 -------------------------------------------------------------------------------

Just Try - The Dandy Warhols
 
 -------------------------------------------------------------------------------

Standard Tuning
Chords:
[D] [G] [E] [Am] [C]  
 
 e|-2--3--0--0--0-|
 B|-3--0--0--1--1-|
 G|-2--0--1--2--0-|
 D|-0--0--2--2--2-|
 A|----2--2--0--3-|
 E|----3--0-------|

First he messes around at the beginning.
I figure you can mess around yourself without me having
to tab it for you.
Guitar 1: (intro)
(0:09)
[D] [G] [E] [Am]  
 
 e|------2----------3----------0----------0-----|
 B|----3---3-3------0---0------0---0------1---0-|
 G|--2------------0---0------1---1----------2---|
 D|--0--------------------------------2---------|
 A|-------------2----------2----------0-0-------|
 E|-------------3----------0--------------------|

Guitar 1: (Riff 1)
[D]v v ^ v ^ [G]v v ^ v ^ [E]v v ^ v ^ [Am]v v ^ v ^
 
 e|------2---2-------3---3-------0---0-------0---0----|
 B|------3---3-------0---0-------0---0-------1---1----|
 G|-2-2--2-2-2-------0---0-------1---1-------2---2----|
 D|-0-0----0---------0---0-------2---2--2-2--2---2----|
 A|-------------2-2----2----2-2----2----0-0----0------|
 E|-------------3-3----3----0-0----0------------------|

Guitar 2: (when the first Riff 1 from Guitar 1 kicks in)
(around 0:19)
[D] [G] [E] [Am]  
 
 e|--------/5-4-5-------5-4-5-------------------------------4-5----|
 B|---------------------------5-------5h6p5---3-------5h6p5--------|
 G|----------------------------------------------------------------|
 D|----------------------------------------------------------------|
 A|----------------------------------------------------------------|
 E|----------------------------------------------------------------|

Guitar 1: (Riff 2)
v v ^ v ^ v ^ v ^ v ^
 
 e|-2--2--3-2--0-0-0-0--0-0-0-|
 B|-3--3--3-3--1-1-1-1--1-1-1-|
 G|-2--2--2-2--2-2-2-2--2-2-2-|
 D|-0--0--0-0--2-2-2-2--2-2-2-|
 A|------------0-0-0-0--0-0-0-|
 E|---------------------------|

Guitar 1: (Riff 3) - Am C G D
(They play an alternate of D on one of the D strums - it's not neccessary,
but if you want to it's just a hammer on/pull off on fret 3 of the e
string. i'm too lazy to write it out. so shmeh.)
Intro
Riff 1 x8
Riff 2 x3
[C]Ri[G]ff[Am] 1 [Am]x4
Riff 2 x3
[C]Ri[E]ff 3 x9
Am C G (end: single strum on G)
| v down stroke
| ^ up stroke
| / slide up
| h hammer-on
| p pull-off
===============================================================================

Important: The song above is NOT stored on the Chordie server. The original song is hosted at www.azchords.com. Chordie works as a search engine and provides on-the-fly formatting. Chordie does not index songs against artists'/composers' will. To remove this song please click here.

Text color:
Chord color:
Chord grids: 
Font size:    
Page size: 

Am C D E G
Rate #1 of 4 versions

Jango Player

Login - add to songbook

SHARE PAGE  



You need to log in to post comments