Guitar Tabs, Chords and Lyrics
Update 25:10. 13:00. Site is back up running again. Songbooks are recovered. Woring on getting search back up..


Brothers  Defeater

So no one submitted this tab, so I figured it out. I play it full step
down or whatever so the tuning is:
 
 D-----------------|
 A-----------------|
 F-----------------|
 C-----------------|
 G-----------------|
 D-----------------|

Intro: Am, Am, F
You play the Am's and F's in the intro like this (and the Am's on the verses lke this too)
[Am] [Am] [F] 
 
 D---0--0--0--0---1--1--1--0--0--0--0------------0---0--------------0------|
 A---1--1--1--1---0--0--0--1--1--1--1------------1---1--------------1------|
 F---2--2--2--2---2--2--2--2--2--2--2--x2-then---2---2--restart..---2--ect.|
 C---2--2--2--2---2--2--2--2--2--2--2------------2---2--------------3------|
 G-0-0--0--0--0---0--0--0--0--0--0--0------------0-0-0---------------------|
 D---------------------------------------------3------------------3--------|

Am (Whole verse)
You need to get out of this house
I‚??ll walk you down to town
We‚??ll go act our age
Kick rocks, waste summer days
Penny candy at the general store
I‚??d buy us a pop if I had more
Keep walking inland all day
Spitting and cursing each other‚??s name
[F]‚??Ain‚??t this what‚?¶ ain‚??t this what brothers are suppos[Am]ed to do?‚??
[F]The blood between us, makes it all but tru[Am]e
Am (whole verse)
So we roll on through
Out past the quarries, sandpits too
Swim out among the rocks and cliffs
Ignorant youth keeps us from death
Find our way out to the tracks
The sun, it beats down on our backs
Well, heaven help us if there‚??s a train
Dodge it like the beaches of Normandybut
[F]‚??Ain‚??t this what‚?¶ ain‚??t this what brothers are suppos[Am]ed to do?‚??
[F]The blood between us, makes it all but tru[Am]e
The chords switch up here to C,G,Am,F The violin sounds good here so I added the violin
below and you can play it with the strum pattern, i used an example after with the C chord
Violin below Guitar + violin below
 
 D---0-3-0----------------------0-3-0----------------------------------|
 A-3-------3-1..repeat----1-1-3-1-1-1-3-1------------------------------|
 F------------------------0-0-0-0-0-0-0-0-x2--repeat-with-other-chords-|
 C------------------------2-2-2-2-2-2-2-2------------------------------|
 G------------------------3-3-3-3-3-3-3-2------------------------------|
 D---------------------------------------------------------------------|

[C]And we saw that smoke rising over [G]trees
And I s[Am]wore, I swore, I swore that train was out for [F]me
[C]So I held him tight and felt those tracks rumble under[G]neath
[Am]He swore, he swore if I didn‚??t let go he would knock me off my[F] feet
And that‚??s what he [C]did
And that's what he di[G]d
And that's what he d[Am]id
And that's what he di[F]d
Then it ends with Am's again. please rate

Important: The song above is NOT stored on the Chordie server. The original song is hosted at www.azchords.com. Chordie works as a search engine and provides on-the-fly formatting. Chordie does not index songs against artists'/composers' will. To remove this song please click here.

Text color:
Chord color:
Chord grids: 
Font size:    
Page size: 

Am C F G
Rate #1 of 2 versions

Jango Player

Login - add to songbook

SHARE PAGE  




You need to log in to post comments