Guitar Tabs, Chords and Lyrics
Server problems seems to be fixed. Chordie has been experiencing problems with songs disappearing. These issues now seems to be fixed, but still verifying the fix. If you find anything strange, please email admin@chordie.com.


My Lover's Gone  Dido

Heya peoples! The only version on mxtabs up until
now was a chord file, so i thought i would write out
the actual tab for it, cause i already knew it. Enjoy!
If you wish to use this tab on a site or claim credit
for it, please inform me before hand. Thanks!
VERSE 1:
 
 --------

| Dm | Dm | Dm | F G | x4
| F | G | Dm | Dm |
[F] [G] [Dm]  
 
 e|------------1-----|-----------3-----|-------1------|
 B|----------1---1---|---------0---0---|-----3--------|
 G|--------2-------2-|-------0-------0-|---2----------|
 D|-----3------------|-----0-----------|-0------------|
 A|---3--------------|---2-------------|--------------|
 E|-1----------------|-3---------------|--------------|

VERSE 2:
 
 --------

[Dm] [F] [G]  
 
 e|-------1---------|-------1---------|-------1---------|-----------------|
 B|-----3---3-------|-----3---3-------|-----3---3-------|-----------------|
 G|---2-------2---2-|---2-------2---2-|---2-------2---2-|-------2-------0-| PLAY
 D|-0-----------0---|-0-----------0---|-0-----------0---|-----3-------0---| x4
 A|-----------------|-----------------|-----------------|---3-------2-----|
 E|-----------------|-----------------|-----------------|-1-------3-------|

[F] [G] [Dm]  
 
 e|---------------|---------------|-------1---------|-----0---1-------|
 B|---------1-----|---------0-----|-----3-----2-----|-----------3-----|
 G|-------2-------|-------0-------|---2---------3---|-------------2---|
 D|-----3---------|-----0---------|-0-------------0-|-0-0---0-------0-|
 A|---3-----------|---2-----------|-----------------|-----------------|
 E|-1-------------|-3-------------|-----------------|-----------------|

[F] [G] [Dm]  
 
 e|-----------1-----|-----------3-----|-1--------|
 B|---------1---1---|---------0---0---|---3------|
 G|-------2-------2-|-------0-------0-|-----2----|
 D|-----3-----------|-----0-----------|-0--------|
 A|---3-------------|---2-------------|----------|
 E|-1---------------|-3---------------|----------|

GUITAR SOLO:
 
 -------------

[Dm] [F] [G] [Dm] [F] [G]  
 
 e|----|--1h3-|-----------|-------------------|----|--1-3h1-|-3-1--------|-----|
 B|----|------|---6p5p3h5-|-h6p5p3-3----------|----|--------|------------|-----|
 G|----|------|-----------|-------------2-0---|----|--------|------4/5-4-|-----|
 D|----|------|-----------|-----------------3-|----|--------|------------|-----|
 A|----|------|-----------|-------------------|----|--------|------------|-----|
 E|----|------|-----------|-------------------|----|--------|------------|-----|

[F] [G] [Dm]  
 
 e|----|----|---1-0-----|------|
 B|----|----|-------3/5-|-3----|
 G|----|----|-----------|------|
 D|----|----|-----------|------|
 A|----|----|-----------|------|
 E|----|----|-----------|------|

[F] [G] [Dm]  
 
 e|-------|------------------|-----|----|
 B|---1---|------------------|-----|----|
 G|-----2-|--0-------0-------|-----|----|
 D|-------|------2-3---3-2---|-0---|----|
 A|-------|----------------3-|-----|----|
 E|-------|------------------|-----|----|

VERSE 3:
 
 --------

| Dm | Dm | Dm | F G | x4
| F | G | Dm | Dm |
[F] [G] [Dm]  
 
 e|------------1-----|-----------3-----|-------1------|
 B|----------1---1---|---------0---0---|-----3--------|
 G|--------2-------2-|-------0-------0-|---2----------|
 D|-----3------------|-----0-----------|-0------------|
 A|---3--------------|---2-------------|--------------|
 E|-1----------------|-3---------------|--------------|

CODA:
[-----]  
[Dm]  
 
 e|----------------------------------13--12-------------------------------|
 B|---3h6-5-3-0----5-/10---------------------15--13-----------------------|
 G|-------------------------14p12h14----------------14---10h14-12-10-12---|
 D|-----------------------------------------------------------------------|
 A|-----------------------------------------------------------------------|
 E|-----------------------------------------------------------------------|

[Dm]  
 
 e|-----------------------------------------------|
 B|---6-8-6-5-6-5---------------------------------|
 G|---------------7-----5-------------------------|
 D|-----------------------7-5---------------------|
 A|---------------------------8---8-7-------------|
 E|-----------------------------------8-8/10------|
 ---------------------------------------------
 ---------------------------------------------


Important: The song above is NOT stored on the Chordie server. The original song is hosted at www.azchords.com. Chordie works as a search engine and provides on-the-fly formatting. Chordie does not index songs against artists'/composers' will. To remove this song please click here.

Text color:
Chord color:
Chord grids: 
Font size:    
Page size: 

Dm F G
Rate #1 of 6 versions

Login - add to songbook

SHARE PAGE  



You need to log in to post comments