Guitar Tabs, Chords and Lyrics
Update 25:10. 13:00. Site is back up running again. Songbooks are recovered. Woring on getting search back up..


Cloudman  Dionysos

Cloudman
Version Acoustique : Em, G, Bm, A
[Dm] [F] [Am] [G]  
Mon nom est Tom Hématome Cloudman
Le plus mauvais cascadeur du monde et de la galaxie
Tom Hématome Cloudman, soleil est compris
Hématome Cloudman, oh yeah
Hématome Cloudman
 
 ----------------------------|----------------------------|
 ----------------------------|----------------------------|
 ----------------------------|-----------4--5--4----------|
 ----------------------------|--7-----------------7--5----|
 --5--------5--8--------8----|----------------------------|
 ----------------------------|----------------------------|

Plus facile jeter qu??un origami
Un oiseau en papier qui aurait pris la pluie
Hématome Cloudman
Pas super ce héros sans pouvoir magique
Oh je ne suis pas un super héros de comics
Mais le bruit de mes os qui se brisent est assez comique
[Eb][C]s [A]qu[Bb]e la raison a le dos tourné
Tom Hématome Cloudman est toujours prêt exploser
Je vis comme une toupie de chair et de sang
Mon équilibre ne s??est maintenu qu??en mouvement
Hématome Cloudman
Je n??ai jamais su résister ces souris douces
Qui du haut de leurs souliers vernis multicolores
Murmuraient des ??encore??
Break :
 
 ----------------------------|----------------------------|
 ----------------------------|----------------------------|
 ----------------------------|----------------------------|
 --8--8--8-----7--7--7-------|--8--8--8-------------------|
 ----------------------------|-----------8--5-------------|
 ----------------------------|----------------------------| x2

[Dm]Je [D]m[A]??étala[F]is[A] f[C]a[Dm]on crêpe intégrale
Oh je m??explosais façon pétard de carnaval
[Gm]Mon[Bb] no[Dm]m e[C]st Tom Hématome Cloudman
Le plus mauvais cascadeur du monde et de la galaxie
Tom Hématome Cloudman, soleil est compris
Hématome Cloudman
Dès que la raison a le dos tourné
Tom Hématome Cloudman est toujours prêt exploser
Tom aimante les hématomes
Comme s??il était électrifié

Important: The song above is NOT stored on the Chordie server. The original song is hosted at www.azchords.com. Chordie works as a search engine and provides on-the-fly formatting. Chordie does not index songs against artists'/composers' will. To remove this song please click here.

Text color:
Chord color:
Chord grids: 
Font size:    
Page size: 

A Am Bb C D Dm Eb F G Gm
Rate #1 of 2 versions

Jango Player

Login - add to songbook

SHARE PAGE  




You need to log in to post comments