Guitar Tabs, Chords and Lyrics
Major upgrade!! After one year development the new version of Chordie is now online! Please give feedback.


Prepare for War  DragonForce

As recorded by DragonForce
(From the 2006 Album SONIC FIRESTORM)
[E5]0 2 2 x x x
[C5]x 3 5 5 x x
[D5]x 5 7 7 x x
[A5]x 0 2 2 x x
[B5]x 2 4 4 x x
E5VII
x 7 9 9 x x
Gtr I (E A D G B E) - 'Lead 1'
Gtr II (E A D G B E) - 'Lead 2'
Gtr III (E A D G B E) - 'Guitar 1'
Gtr IV (E A D G B E) - 'Guitar 2'
Gtr V (E A D G B E) - 'Clean and Acoustic'
Intro
Q=100
[E5] [C5] [E5] [D5] 
[4/4] Gtr IV
E Q. E Q. E Q. H
| | | |
[/] [/] [/] [/] 
Gtr I
E S S S S E E S S S S E E S S S S S E S S E S E
 
 |---------------------------|--------------7---5---5------|
 |-5-5--5-8-7----------8-7-8-|-5-5--5-8-7-8-------8---8-7--|
 |------------7-5-5--5-------|-----------------------------|
 |---------------------------|-----------------------------|
 |---------------------------|-----------------------------|
 |---------------------------|-----------------------------|

|
| Gtr II
| E S S S S E E S S S S E E S S S S S E S S E S E
 
 |---------------------------|--------------3---2---2------|
 |--------5-3----------5-3-5-|--------5-3-5-------5---5-3--|
 |-4-4--4-----4-0-0--0-------|-4-4--4----------------------|
 |---------------------------|-----------------------------|
 |---------------------------|-----------------------------|
 |---------------------------|-----------------------------|

|
| Gtr III
| E Q. E Q. E Q. H
 
 |---------------------------|-----------------------------|
 |---------------------------|-----------------------------|
 |-9------------5------------|-9--------------7------------|
 |-9------------5------------|-9--------------7------------|
 |-7------------3------------|-7--------------5------------|
 |---------------------------|-----------------------------|

[E5]E Q. [C5]E Q.
| |
[/] [/]  
T T T T T T T T T T T T T T T T T T T T T T T T T T T T T T T T
 
 |--------------------------5--------------------------------5--------|
 |-5-8-7-8-5--8-7-8-5-8-7-8---8-7-----8-7-8----8-7-8---8-7-8---8-7----|
 |--------------------------------7-5-------5--------5-------------7--|
 |--------------------------------------------------------------------|
 |--------------------------------------------------------------------|
 |--------------------------------------------------------------------|

|
| T T T T T T T T T T T T T T T T T T T T T T T T T T T T T T T T
 
 |--------------------------2--------------------------------2--------|
 |---5-3-5----5-3-5---5-3-5---5-3-----5-3-5----5-3-5---5-3-5---5-3----|
 |-4-------4--------4-------------4-0-------0--------0-------------4--|
 |--------------------------------------------------------------------|
 |--------------------------------------------------------------------|
 |--------------------------------------------------------------------|

|
| E Q. E Q.
 
 |--------------------------------------------------------------------|
 |--------------------------------------------------------------------|
 |-9--------------------------------5---------------------------------|
 |-9--------------------------------5---------------------------------|
 |-7--------------------------------3---------------------------------|
 |--------------------------------------------------------------------|

T T T T T T T T T T T T T T T T T T T T T T T T T T T T T T T T
 
 |---------------------------------------------------------------5--|
 |-------------------------3-------------------------------5-7-8----|
 |-2-5-4-5-2-5-4-5-2-5-4-5---5-4---4-7-6-7-4-7-6-7-4-7-6-7----------|
 |-------------------------------5----------------------------------|
 |------------------------------------------------------------------|
 |------------------------------------------------------------------|

|
| T T T T T T T T T T T T T T T T T T T T T T T T T T T T T T T T
 
 |------------------------------------------------------------------|
 |-----------------------------------------------------------3-5-7--|
 |-------------------------4---------4-2-4---4-2-4---4-2-4-5--------|
 |-4-7-5-7-4-7-5-7-4-7-5-7---7-5---4-------4-------4----------------|
 |-------------------------------7----------------------------------|
 |------------------------------------------------------------------|

|
| Gtrs III, IV
| H H
 
 |------------------------------------------------------------------|
 |------------------------------------------------------------------|
 |-2-------------------------------4--------------------------------|
 |-2-------------------------------4--------------------------------|
 |-0-------------------------------2--------------------------------|
 |------------------------------------------------------------------|

E. S S S S S E. S S S S S
 
 |-7----------7---7---7---5---7--------------7-7---7---5---7---|
 |--------------------------------8----------------------------|
 |-------------------------------------------------------------|
 |-------------------------------------------------------------|
 |-------------------------------------------------------------|
 |-------------------------------------------------------------|

|
| E. S S S S S E. S S S S S
 
 |-------------------------------------------------------------|
 |-8----------8---8---8---7---8--------------8-8---8---7---8---|
 |--------------------------------9----------------------------|
 |-------------------------------------------------------------|
 |-------------------------------------------------------------|
 |-------------------------------------------------------------|

|
| S T T T T T T T T T T T T T T S T T T T S T T T T T T T T
 
 |-------------------------------------------------------------|
 |-------------------------------------------------------------|
 |-4-----------------------------------------------------------|
 |-2--2-2-2-2-2-2-2-2-2-2-2-2-2-2-5----------5-----------------|
 |-2------------------------------3--3-3-3-3-3-3-3-3-3-3-3-3-3-|
 |-0--0-0-0-0-0-0-0-0-0-0-0-0-0-0------------------------------|

E. S S S S S E S S S E.
 
 |-[12]---------7---7---7---5---7----8S====10----8-----7------------|
 |------------------------------------------------------------------|
 |------------------------------------------------------------------|
 |------------------------------------------------------------------|
 |------------------------------------------------------------------|
 |------------------------------------------------------------------|

|
| E. S S S S S E S S S E.
 
 |------------------------------------------------------------------|
 |-[12]---------8---8---8---7---8---10S====12---10-----8------------|
 |------------------------------------------------------------------|
 |------------------------------------------------------------------|
 |------------------------------------------------------------------|
 |------------------------------------------------------------------|

|
| S T T T T T T T T T T T T T T S T T T T S T T T T T T T T
 
 |------------------------------------------------------------------|
 |------------------------------------------------------------------|
 |---4--------------------------------------------------------------|
 |---2--2-2-2-2-2-2-2-2-2-2-2-2-2-2--7-----------7------------------|
 |---2-------------------------------5-5-5--5-5--5-5-5-5--5-5-5-5-5-|
 |---0--0-0-0-0-0-0-0-0-0-0-0-0-0-0---------------------------------|

E. S S S S S E. S S S S S
 
 |-7----------7---7---7---5---7--------------7-7---7---5---7---|
 |--------------------------------8----------------------------|
 |-------------------------------------------------------------|
 |-------------------------------------------------------------|
 |-------------------------------------------------------------|
 |-------------------------------------------------------------|

|
| E. S S S S S E. S S S S S
 
 |-------------------------------------------------------------|
 |-8----------8---8---8---7---8--------------8-8---8---7---8---|
 |--------------------------------9----------------------------|
 |-------------------------------------------------------------|
 |-------------------------------------------------------------|
 |-------------------------------------------------------------|

|
| S T T T T T T T T T T T T T T S T T T T S T T T T T T T T
 
 |-------------------------------------------------------------|
 |-------------------------------------------------------------|
 |-4-----------------------------------------------------------|
 |-2--2-2-2-2-2-2-2-2-2-2-2-2-2-2-5----------5-----------------|
 |-2------------------------------3--3-3-3-3-3-3-3-3-3-3-3-3-3-|
 |-0--0-0-0-0-0-0-0-0-0-0-0-0-0-0------------------------------|

E. S S S S S T T T T T T T T T T T T T T T T
 
 |------------7---5-------5---7----8-7-5---------------------------|
 |-8------------------8------------------8-7-5---------------------|
 |---------------------------------------------7-5-7-5-4-----------|
 |-------------------------------------------------------7-5-4-----|
 |-------------------------------------------------------------7-5-|
 |-----------------------------------------------------------------|

|
| E. S S S S S T T T T T T T T T T T T T T T T
 
 |-----------------------------------------------------------------|
 |------------8---7-------7---8---10-8-7---------------------------|
 |-9------------------9------------------9-7-5---------------------|
 |---------------------------------------------9-7-9-7-5-----------|
 |-------------------------------------------------------9-7-5-4---|
 |---------------------------------------------------------------7-|

|
| S T T T T T T T T T T T T T T T T T T T T T T T T T T T T T T
 
 |-----------------------------------------------------------------|
 |-----------------------------------------------------------------|
 |-----------------------------------------------------------------|
 |-4---------------------------------------------------------------|
 |-2--2-2-2-2-2-2-2-2-2-2-2-2-2-2--3-3-3-3-3-3-3-3-3-3-3-3-3-3-3-3-|
 |-----------------------------------------------------------------|

E. S S S S S E. S S S S S
 
 |-10----------10---10---10----8---10--------------10-10---10----8---7---|
 |--------------------------------------8--------------------------------|
 |-----------------------------------------------------------------------|
 |-----------------------------------------------------------------------|
 |-----------------------------------------------------------------------|
 |-----------------------------------------------------------------------|

|
| E. S S S S S E. S S S S S
 
 |-----------------------------------------------------------------------|
 |-12----------12---12---12---10---12--------------12-12---12---10---8---|
 |--------------------------------------9--------------------------------|
 |-----------------------------------------------------------------------|
 |-----------------------------------------------------------------------|
 |-----------------------------------------------------------------------|

|
| S T T T T T T T T T T T T T T S T T T T S T T T T T T T T
 
 |-----------------------------------------------------------------------|
 |-----------------------------------------------------------------------|
 |--4--------------------------------------------------------------------|
 |--2--2-2-2-2--2-2--2-2--2-2--2-2--2-2-5-----------5--------------------|
 |--2-----------------------------------3--3-3-3-3--3--3-3--3-3--3-3-3-3-|
 |--0--0-0-0-0--0-0--0-0--0-0--0-0--0-0----------------------------------|

E. S S S S S S S S E S E
 
 |-[15]----------10---10---10----8---10s==14-14---10---14-----15---17-------|
 |--------------------------------------------------------------------------|
 |--------------------------------------------------------------------------|
 |--------------------------------------------------------------------------|
 |--------------------------------------------------------------------------|
 |--------------------------------------------------------------------------|

|
| E S S S S S S S S S E S E
 
 |--------------------------------------------------------------------------|
 |-<15>-----12---12---12---12---10---12---15-15---12---15-----17---19-------|
 |--------------------------------------------------------------------------|
 |--------------------------------------------------------------------------|
 |--------------------------------------------------------------------------|
 |--------------------------------------------------------------------------|

|
| S T T T T T T T T T T T T T T S T T T T S T T T T T T T T
 
 |--------------------------------------------------------------------------|
 |--------------------------------------------------------------------------|
 |---4----------------------------------------------------------------------|
 |---2--2-2--2-2--2-2--2-2--2-2--2-2--2-2--7------------7-------------------|
 |---2-------------------------------------5--5-5--5-5--5-5-5--5-5--5-5-5-5-|
 |---0--0-0--0-0--0-0--0-0--0-0--0-0--0-0-----------------------------------|

E. S S S S S E. S S S S S
 
 |-10----------10---10---10----8---10--------------10-10---10----8---10---|
 |--------------------------------------8---------------------------------|
 |------------------------------------------------------------------------|
 |------------------------------------------------------------------------|
 |------------------------------------------------------------------------|
 |------------------------------------------------------------------------|

|
| E. S S S S S E. S S S S S
 
 |------------------------------------------------------------------------|
 |-12----------12---12---12---10---12--------------12-12---12---10---12---|
 |--------------------------------------9---------------------------------|
 |------------------------------------------------------------------------|
 |------------------------------------------------------------------------|
 |------------------------------------------------------------------------|

|
| S T T T T T T T T T T T T T T S T T T T S T T T T T T T T
 
 |------------------------------------------------------------------------|
 |------------------------------------------------------------------------|
 |--4---------------------------------------------------------------------|
 |--2--2-2-2-2--2-2--2-2--2-2--2-2--2-2-5-----------5---------------------|
 |--2-----------------------------------3--3-3-3-3--3--3-3--3-3--3-3--3-3-|
 |--0--0-0-0-0--0-0--0-0--0-0--0-0--0-0-----------------------------------|

E S S E S S T T T T T T T T T T T T T T T T
 
 |-12-----12---12---[12]b15r======15---17---19p14----14-19p14-19p14----14-19p14-19p14----14-||
 |------------------------------------------------------------------------------------------||
 |------------------------------------------------16----------------16----------------16----||
 |------------------------------------------------------------------------------------------||
 |------------------------------------------------------------------------------------------||
 |------------------------------------------------------------------------------------------||

|
| E S S E S S T T T T T T T T T T T T T T T T
 
 |------------------------------------------------------------------------------------------||
 |-13-----13---13----13-----------17---19---20p15----15-20p15-20p15----15-20p15-20p15----15-||
 |------------------------------------------------------------------------------------------||
 |------------------------------------------------16----------------16----------------16----||
 |------------------------------------------------------------------------------------------||
 |------------------------------------------------------------------------------------------||

|
| S T T T T T T T T T T T T T T S T T T T T T T T T T T T T T
 
 |------------------------------------------------------------------------------------------||
 |------------------------------------------------------------------------------------------||
 |------------------------------------------------------------------------------------------||
 |--2----------------------------------------4----------------------------------------------||
 |--0-0-0--0-0--0-0---0-----0-0-0--0-0--0-0--2-----2--2--2--2--2--2--2--2--2--2--2--2--2--2-||
 |------------------------------------------------------------------------------------------||

Heavey
E5VII D5
Gtr IV
E Q. E E. S S S
| | | |
[/] [/] [/] [/] 
Q E H E
 
 |-19S=====(0)--------------------------|
 |--------------------------------------|
 |--------------------------------------|
 |--------------------------------------|
 |--------------------------------------|
 |--------------------------------------|

|
| Q E H E
 
 |--------------------------------------|
 |-20S=====(0)--------------------------|
 |--------------------------------------|
 |--------------------------------------|
 |--------------------------------------|
 |--------------------------------------|

|
| E S S S T T T T S E S S S E S
 
 |--------------------------------------|
 |--------------------------------------|
 |------------------------------------2-|
 |--2--------------------2--------5---2-|
 |--2----------0-3-6-3-0-2--------5---0-|
 |--0-0--0--2------------0-0--0-0-3-----|

W
Gtr IV
E H..
 
 |-------------------------------------------------------|
 |-------------------------------------------------------|
 |-9-----------------------------------------------------|
 |-9-----------------------------------------------------|
 |-7-----------------------------------------------------|
 |-------------------------------------------------------|

|
| W
 
 |-------------------------------------------------------|
 |-------------------------------------------------------|
 |-------------------------------------------------------|
 |-------------------------------------------------------|
 |-------------------------------------------------------|
 |-------------------------------------------------------|

|
| E S S S T T T T S T T T T T T T T T T T T T T T T
 
 |-------------------------------------------------------|
 |-------------------------------------------------------|
 |-------------------------------------------------------|
 |-2-------------------------------4-7-4---4-------------|
 |-2---------0-3-6-3-0---0-3-6-3-6-------6---6-3-6-3-----|
 |-0-0---0-2-----------2-----------------------------5---|

Gtrs III, IV
E S S S T T T T S E S S S E S
 
 |-------------------------------|
 |-------------------------------|
 |-----------------------------2-|
 |-2-----------------2-------5-2-|
 |-2-------0-3-6-3-0-2-------5-0-|
 |-0-0-0-2-----------0-0-0-0-3---|

E S S S T T T T S T T T T T T T T T T T T T T T T
 
 |---------------------------------------------------|
 |---------------------------------------------------|
 |---------------------------------------------------|
 |-2-----------------------------4-7-4---4-----------|
 |-2-------0-3-6-3-0---0-3-6-3-6-------6---6-3-6-3---|
 |-0-0-0-2-----------2-----------------------------5-|

E S S S T T T T S E S S S E S
 
 |-------------------------------|
 |-------------------------------|
 |-----------------------------2-|
 |-2-----------------2-------5-2-|
 |-2-------0-3-6-3-0-2-------5-0-|
 |-0-0-0-2-----------0-0-0-0-3---|

E S S S T T T T S T T T T T T T T T T T T T T T T
 
 |---------------------------------------------------|
 |---------------------------------------------------|
 |---------------------------------------------------|
 |-2-----------------------------4-7-4---4-----------|
 |-2-------0-3-6-3-0---0-3-6-3-6-------6---6-3-6-3---|
 |-0-0-0-2-----------2-----------------------------5-|

Gtr III
~~
T T T T T T T T T T T T T T T T T T T T T T T T Q
 
 |-----------------------------------------------8-11-14--|
 |---------------------------------7-10-----7-10----------|
 |---------------------5-8-----5-8------5-8---------------|
 |---------4-7-----4-7-----4-7----------------------------|
 |-----3-6-----3-6----------------------------------------|
 |-2-5----------------------------------------------------|

Gtr II
~~~~
T T T T T T T T T T T T E S T T T T T T T T T T E
 
 |-15p12----12-------------------------------------------------------------------------||
 |-------15----15p12----12-------------------------------------------------------------||
 |-------------------15----15-14-12-14-14b16-14pb16r12----12----------------------[12]-||
 |-----------------------------------------------------14----14p12----------12-14------||
 |-----------------------------------------------------------------14-12-14------------||
 |-------------------------------------------------------------------------------------||

Verse
Gtrs III, IV
S S S T T S S E T T S S T T S S E T T S S T T S S E T T S S T T S S S S
 
 |-----------------------------------|-----------------------------------------|
 |-----------------------------------|-----------------------------------------|
 |-----------------------------------|-----------------------------------------|
 |-----------------------------------|-----------------------------------------|
 |-0-0---0-0-0-0---0-0-0---0-0-0-0-7-|-0-0-0---0-0-0-0-------------------------|
 |---------------3-------------------|-----------------3-1-1-1---1-1-1---1-----|

S S S T T S S E T T S S T T S S E H H
 
 |-----------------------------------|-----------|
 |-----------------------------------|-----------|
 |-----------------------------------|-----------|
 |-----------------------------------|-3----5----|
 |-0-0---0-0-0-0---0-0-0---0-0-0-0-7-|-3----5----|
 |---------------3-------------------|-1----3----|

T T T T T T T T T T T T E T T T T T T T T T T T T E
 
 |-----------------------------------------------------|
 |-----------------------------------------------------|
 |-----------------------------------------------------|
 |-----------------------------------------------------|
 |-0-0-0-0-0-0-0-0-0-0-0-0---0-0-0-0-0-0-0-0-0-0-0-0-7-|
 |-------------------------3---------------------------|

T T T T T T T T T T T T E T T T T T T T T T T T T E
 
 |-------------------------------------------------------|
 |---------------------------------------------------[5]-|
 |---------------------------------------------2-4-5-----|
 |---------------------------------------2-3-5-----------|
 |-0-0-0-0-0-0-0-0-0-0-0-0---------2-3-5-----------------|
 |-------------------------3-1-3-5-----------------------|

|
| Gtr IV
| T T T T T T T T T T T T E T T T T T T T T T T T T E
 
 |-------------------------------------------------------|
 |---------------------------------------------1-3-5-[1]-|
 |---------------------------------------0-2-4-----------|
 |---------------------------------0-2-3-----------------|
 |-0-0-0-0-0-0-0-0-0-0-0-0---0-2-3-----------------------|
 |-------------------------3-----------------------------|

Gtrs III, IV
T T T T T T T T T T T T E T T T T T T T T T T T T E
 
 |-----------------------------------------------------|
 |-----------------------------------------------------|
 |-----------------------------------------------------|
 |-----------------------------------------------------|
 |-0-0-0-0-0-0-0-0-0-0-0-0---0-0-0-0-0-0-0-0-0-0-0-0-7-|
 |-------------------------3---------------------------|

T T T T T T T T T T T T T T T T T T T T T T T T T T T T T T T T
 
 |-----------------------------------------------------------------|
 |-----------------------------------------------------------------|
 |-----------------------------------------------2-4-2-------------|
 |-------------2-3-5-3-2-------------------2-3-5-------5-3-2-------|
 |-------2-3-5-----------5-3-2-------2-3-5-------------------5-3-2-|
 |-1-3-5-----------------------5-3-5-------------------------------|

|
| Gtr IV
| T T T T T T T T T T T T T T T T T T T T T T T T T T T T T T T T
 
 |-----------------------------------------------------------------|
 |-----------------------------------------------1-3-1-------------|
 |-------------0-2-4-2-0-------------------0-2-4-------4-2-0-------|
 |-------0-2-3-----------3-2-0-------0-2-3-------------------3-2-0-|
 |-0-2-3-----------------------3-2-0-------------------------------|
 |-----------------------------------------------------------------|

Gtrs III, IV
W S T T T T T T T T T T T T T T S T T T T S T T T T T T T T
 
 |----------|------------------------------------------------------------|
 |----------|------------------------------------------------------------|
 |----------|------------------------------------------------------------|
 |-3--------|-2-----------------------------2---------2------------------|
 |-3--------|-0-0-0-0-0-0-0-0-0-0-0-0-0-0-0-0-0-0-0-0-0-0-0-0-0-0-0-0-0--|
 |-1--------|------------------------------------------------------------|

W H Q Q E H..
 
 |----------|------------|----------|
 |----------|------------|----------|
 |----------|------------|----------|
 |-3--------|-2----3--5--|-2--------|
 |-3--------|-2----3--5--|-2--------|
 |-1--------|-0----1--3--|-0--------|

S T T T T T T T T T T T T T T S T T T T S T T T T T T T T W
 
 |-----------------------------------------------------------|------|
 |-----------------------------------------------------------|------|
 |-----------------------------------------------------------|------|
 |-5-----------------------------5---------5-----------------|-3----|
 |-3-3-3-3-3-3-3-3-3-3-3-3-3-3-3-3-3-3-3-3-3-3-3-3-3-3-3-3-3-|-3----|
 |-----------------------------------------------------------|-1----|

W W W W
 
 |----------|----------|----------|------|
 |----------|----------|----------|------|
 |----------|-2--------|-5--------|------|
 |-5--------|-2--------|-5--------|-3----|
 |-5--------|-0--------|-3--------|-3----|
 |-3--------|----------|----------|-1----|

S T T T T T T T T T T T T T T E Q.
 
 |--------------------------------------|
 |--------------------------------------|
 |--------------------------------------|
 |-------------------------------5------|
 |-5-----------------------------5------|
 |-3-3-3-3-3-3-3-3-3-3-3-3-3-3-3-3------|

Gtr III
 
 |-3-| |-3-| |-3-| |-3-|

S S S S S S S S S S S S T T T T T T T T T T T T T T T T
 
 |-----------------------------------------------------------||
 |-----------------------------------------------------------||
 |-------------------------4-2-1-4-2-1-----------------------||
 |---------2-3---2-3-5-2-3-------------3-2-3-2---------------||
 |---2-3-5-----5-------------------------------5-3-2---------||
 |-5-------------------------------------------------5-3-1---||

Guitar
Gtr I
E. S S S S S E. S S S S S
 
 |-7----------7---7---7---5---7--------------7-7---7---5---7s==|
 |--------------------------------8----------------------------|
 |-------------------------------------------------------------|
 |-------------------------------------------------------------|
 |-------------------------------------------------------------|
 |-------------------------------------------------------------|

|
| Gtr II
| E. S S S S S E. S S S S S
 
 |-------------------------------------------------------------|
 |-8----------8---8---8---7---8--------------8-8---8---7---8---|
 |--------------------------------9----------------------------|
 |-------------------------------------------------------------|
 |-------------------------------------------------------------|
 |-------------------------------------------------------------|

|
| Gtrs III, IV
| S T T T T T T T T T T T T T T S T T T T S T T T T T T T T
 
 |-------------------------------------------------------------|
 |-------------------------------------------------------------|
 |-4-----------------------------------------------------------|
 |-2--2-2-2-2-2-2-2-2-2-2-2-2-2-2-5----------5-----------------|
 |-2------------------------------3--3-3-3-3-3-3-3-3-3-3-3-3-3-|
 |-0--0-0-0-0-0-0-0-0-0-0-0-0-0-0------------------------------|

E. S S S S S E S S S E.
 
 |-[12]---------7---7---7---5---7----8-----/10----8-----7------------|
 |-------------------------------------------------------------------|
 |-------------------------------------------------------------------|
 |-------------------------------------------------------------------|
 |-------------------------------------------------------------------|
 |-------------------------------------------------------------------|

|
| E. S S S S S E S S S E.
 
 |-------------------------------------------------------------------|
 |-[12]---------8---8---8---7---8---10-----/12---10-----8------------|
 |-------------------------------------------------------------------|
 |-------------------------------------------------------------------|
 |-------------------------------------------------------------------|
 |-------------------------------------------------------------------|

|
| S T T T T T T T T T T T T T T S T T T T S T T T T T T T T
 
 |-------------------------------------------------------------------|
 |-------------------------------------------------------------------|
 |---4---------------------------------------------------------------|
 |---2--2-2-2-2-2-2-2-2-2-2-2-2-2-2--7------------7------------------|
 |---2-------------------------------5-5-5---5-5--5-5-5-5--5-5-5-5-5-|
 |---0--0-0-0-0-0-0-0-0-0-0-0-0-0-0----------------------------------|

E. S S S S S T T T T T T S S S S S
 
 |-7----------7---7---7---5---7--------------------7---7---5---7---|
 |--------------------------------8h12p8h12p8h12p8-----------------|
 |-----------------------------------------------------------------|
 |-----------------------------------------------------------------|
 |-----------------------------------------------------------------|
 |-----------------------------------------------------------------|

|
| E. S S S S S T T T T T T S S S S S
 
 |-----------------------------------------------------------------|
 |-8----------8---8---8---7---8--------------------8---8---7---8---|
 |--------------------------------9h12p9h12p9h12p9-----------------|
 |-----------------------------------------------------------------|
 |-----------------------------------------------------------------|
 |-----------------------------------------------------------------|

|
| S T T T T T T T T T T T T T T S T T T T S T T T T T T T T
 
 |-----------------------------------------------------------------|
 |-----------------------------------------------------------------|
 |-4---------------------------------------------------------------|
 |-2--2-2-2-2-2-2-2-2-2-2-2-2-2-2-5--------------5-----------------|
 |-2------------------------------3----3--3-3--3-3-3-3-3-3-3-3-3-3-|
 |-0--0-0-0-0-0-0-0-0-0-0-0-0-0-0----------------------------------|

T T T T T T S S S S S T T T T T T T T T T T T T T T T
 
 |--------------------5-------5---7----8-7-5----------------------------|
 |-8h12p8h12p8h12p8-------8------------------8-7-5----------------------|
 |-------------------------------------------------7-5-7-5-4------------|
 |-----------------------------------------------------------7-5-4------|
 |-----------------------------------------------------------------7-5--|
 |----------------------------------------------------------------------|

|
| T T T T T T S S S S S T T T T T T T T T T T T T T T T
 
 |----------------------------------------------------------------------|
 |--------------------7-------7---8---10-8-7----------------------------|
 |-9h12p9h12p9h12p9-------9------------------9-7-5----------------------|
 |-------------------------------------------------9-7-9-7-5------------|
 |-----------------------------------------------------------9-7-5-4----|
 |-------------------------------------------------------------------7--|

|
| S T T T T T T T T T T T T T T T T T T T T T T T T T T T T T T
 
 |----------------------------------------------------------------------|
 |----------------------------------------------------------------------|
 |----------------------------------------------------------------------|
 |-4--------------------------------------------------------------------|
 |-2----2--2-2--2-2-2-2-2-2-2-2-2-2-2--3-3-3-3-3-3-3-3-3-3-3-3-3-3-3-3--|
 |----------------------------------------------------------------------|

E. S S S S S E. S S S S S
 
 |-10----------10---10---10----8---10--------------10-10---10----8---7---|
 |--------------------------------------8--------------------------------|
 |-----------------------------------------------------------------------|
 |-----------------------------------------------------------------------|
 |-----------------------------------------------------------------------|
 |-----------------------------------------------------------------------|

|
| E. S S S S S E. S S S S S
 
 |-----------------------------------------------------------------------|
 |-12----------12---12---12---10---12--------------12-12---12---10---8---|
 |--------------------------------------9--------------------------------|
 |-----------------------------------------------------------------------|
 |-----------------------------------------------------------------------|
 |-----------------------------------------------------------------------|

|
| S T T T T T T T T T T T T T T S T T T T S T T T T T T T T
 
 |-----------------------------------------------------------------------|
 |-----------------------------------------------------------------------|
 |--4--------------------------------------------------------------------|
 |--2--2-2-2-2--2-2--2-2--2-2--2-2--2-2-5-----------5--------------------|
 |--2-----------------------------------3--3-3-3-3--3--3-3--3-3--3-3-3-3-|
 |--0--0-0-0-0--0-0--0-0--0-0--0-0--0-0----------------------------------|

E. S S S S S S S S E S E
 
 |-[15]----------10---10---10----8---10s==14-14---10---14-----15---17-------|
 |--------------------------------------------------------------------------|
 |--------------------------------------------------------------------------|
 |--------------------------------------------------------------------------|
 |--------------------------------------------------------------------------|
 |--------------------------------------------------------------------------|

|
| E S S S S S S S S S E S E
 
 |--------------------------------------------------------------------------|
 |-<15>-----12---12---12---12---10---12---15-15---12---15-----17---19-------|
 |--------------------------------------------------------------------------|
 |--------------------------------------------------------------------------|
 |--------------------------------------------------------------------------|
 |--------------------------------------------------------------------------|

|
| S T T T T T T T T T T T T T T S T T T T S T T T T T T T T
 
 |--------------------------------------------------------------------------|
 |--------------------------------------------------------------------------|
 |---4----------------------------------------------------------------------|
 |---2--2-2--2-2--2-2--2-2--2-2--2-2--2-2--7------------7-------------------|
 |---2-------------------------------------5--5-5--5-5--5-5-5--5-5--5-5-5-5-|
 |---0--0-0--0-0--0-0--0-0--0-0--0-0--0-0-----------------------------------|

E. S S S S S E. S S S S S
 
 |-10----------10---10---10----8---10--------------10-10---10----8---10---|
 |--------------------------------------8---------------------------------|
 |------------------------------------------------------------------------|
 |------------------------------------------------------------------------|
 |------------------------------------------------------------------------|
 |------------------------------------------------------------------------|

|
| E. S S S S S E. S S S S S
 
 |------------------------------------------------------------------------|
 |-12----------12---12---12---10---12--------------12-12---12---10---12---|
 |--------------------------------------9---------------------------------|
 |------------------------------------------------------------------------|
 |------------------------------------------------------------------------|
 |------------------------------------------------------------------------|

|
| S T T T T T T T T T T T T T T S T T T T S T T T T T T T T
 
 |------------------------------------------------------------------------|
 |------------------------------------------------------------------------|
 |--4---------------------------------------------------------------------|
 |--2--2-2-2-2--2-2--2-2--2-2--2-2--2-2-5-----------5---------------------|
 |--2-----------------------------------3--3-3-3-3--3--3-3--3-3--3-3--3-3-|
 |--0--0-0-0-0--0-0--0-0--0-0--0-0--0-0-----------------------------------|

E S S T T T T T T T T T T T T T T T T T T T T T T T T
 
 |-12-----12---12---15-15-12-12-15-15-17-17-19p14----14-19p14-19p14----14-19p14-19p14----14-|
 |------------------------------------------------------------------------------------------|
 |------------------------------------------------16----------------16----------------16----|
 |------------------------------------------------------------------------------------------|
 |------------------------------------------------------------------------------------------|
 |------------------------------------------------------------------------------------------|

|
| E S S T T T T T T T T T T T T T T T T T T T T T T T T
 
 |------------------------------------------------------------------------------------------|
 |-13-----13---13---17-17-13-13-17-17-19-19-20p15----15-20p15-20p15----15-20p15-20p15----15-|
 |------------------------------------------------------------------------------------------|
 |------------------------------------------------16----------------16----------------16----|
 |------------------------------------------------------------------------------------------|
 |------------------------------------------------------------------------------------------|

|
| S T T T T T T T T T T T T T T S T T T T T T T T T T T T T T
 
 |------------------------------------------------------------------------------------------|
 |------------------------------------------------------------------------------------------|
 |------------------------------------------------------------------------------------------|
 |--2----------------------------------------4----------------------------------------------|
 |--0-0-0--0-0--0-0--0--0--0--0--0--0--0--0--2-----2--2--2--2--2--2--2--2--2--2--2--2--2--2-|
 |------------------------------------------------------------------------------------------|

[2/4] /3.5___________/
a +E. +S Q
 
 |-12-----(12)---(12)-------------|
 |--------------------------------|
 |--------------------------------|
 |--------------------------------|
 |--------------------------------|
 |--------------------------------|

|
| Q Q
 
 |--------------------------------|
 |---------20\--------------------|
 |--------------------------------|
 |--------------------------------|
 |--------------------------------|
 |--------------------------------|

|
| Gtr III
| E S S S T T T T S
 
 |--------------------------------|
 |--------------------------------|
 |--------------------------------|
 |----------2---------------------|
 |----------2-----------0-3-6-3-0-|
 |----------0--0---0--2-----------|

[4/4] W
 
 |---------------------------------------------------------||
 |---------------------------------------------------------||
 |---------------------------------------------------------||
 |---------------------------------------------------------||
 |---------------------------------------------------------||
 |---------------------------------------------------------||

|
| W
 
 |---------------------------------------------------------||
 |---------------------------------------------------------||
 |---------------------------------------------------------||
 |---------------------------------------------------------||
 |---------------------------------------------------------||
 |---------------------------------------------------------||

|
| ~~
| T T T T T T T T T T T T T T T T T T T T T T T T Q
 
 |-----------------------------------------------8-11-14---||
 |---------------------------------7-10-----7-10-----------||
 |---------------------5-8-----5-8------5-8----------------||
 |---------4-7-----4-7-----4-7-----------------------------||
 |-----3-6-----3-6-----------------------------------------||
 |-2-5-----------------------------------------------------||

Verse
Gtrs III, IV
S S S T T S S E T T S S T T S S E T T S S T T S S E T T S S T T S S S S
 
 |-----------------------------------|-----------------------------------------|
 |-----------------------------------|-----------------------------------------|
 |-----------------------------------|-----------------------------------------|
 |-----------------------------------|-----------------------------------------|
 |-0-0---0-0-0-0---0-0-0---0-0-0-0-7-|-0-0-0---0-0-0-0-------------------------|
 |---------------3-------------------|-----------------3-1-1-1---1-1-1---1-----|

S S S T T S S E T T S S T T S S E H H
 
 |-----------------------------------|-----------|
 |-----------------------------------|-----------|
 |-----------------------------------|-----------|
 |-----------------------------------|-3----5----|
 |-0-0---0-0-0-0---0-0-0---0-0-0-0-7-|-3----5----|
 |---------------3-------------------|-1----3----|

T T T T T T T T T T T T E T T T T T T T T T T T T E
 
 |-----------------------------------------------------|
 |-----------------------------------------------------|
 |-----------------------------------------------------|
 |-----------------------------------------------------|
 |-0-0-0-0-0-0-0-0-0-0-0-0---0-0-0-0-0-0-0-0-0-0-0-0-7-|
 |-------------------------3---------------------------|

T T T T T T T T T T T T E T T T T T T T T T T T T E
 
 |-------------------------------------------------------|
 |---------------------------------------------------[5]-|
 |---------------------------------------------2-4-5-----|
 |---------------------------------------2-3-5-----------|
 |-0-0-0-0-0-0-0-0-0-0-0-0---------2-3-5-----------------|
 |-------------------------3-1-3-5-----------------------|

|
| Gtr IV
| T T T T T T T T T T T T E T T T T T T T T T T T T E
 
 |-------------------------------------------------------|
 |---------------------------------------------1-3-5-[1]-|
 |---------------------------------------0-2-4-----------|
 |---------------------------------0-2-3-----------------|
 |-0-0-0-0-0-0-0-0-0-0-0-0---0-2-3-----------------------|
 |-------------------------3-----------------------------|

Gtrs III, IV
T T T T T T T T T T T T E T T T T T T T T T T T T E
 
 |-----------------------------------------------------|
 |-----------------------------------------------------|
 |-----------------------------------------------------|
 |-----------------------------------------------------|
 |-0-0-0-0-0-0-0-0-0-0-0-0---0-0-0-0-0-0-0-0-0-0-0-0-7-|
 |-------------------------3---------------------------|

T T T T T T T T T T T T T T T T T T T T T T T T T T T T T T T T
 
 |-----------------------------------------------------------------|
 |-----------------------------------------------------------------|
 |-----------------------------------------------2-4-2-------------|
 |-------------2-3-5-3-2-------------------2-3-5-------5-3-2-------|
 |-------2-3-5-----------5-3-2-------2-3-5-------------------5-3-2-|
 |-1-3-5-----------------------5-3-5-------------------------------|

|
| Gtr IV
| T T T T T T T T T T T T T T T T T T T T T T T T T T T T T T T T
 
 |-----------------------------------------------------------------|
 |-----------------------------------------------1-3-1-------------|
 |-------------0-2-4-2-0-------------------0-2-4-------4-2-0-------|
 |-------0-2-3-----------3-2-0-------0-2-3-------------------3-2-0-|
 |-0-2-3-----------------------3-2-0-------------------------------|
 |-----------------------------------------------------------------|

Gtrs III, IV
W S T T T T T T T T T T T T T T S T T T T S T T T T T T T T
 
 |----------|------------------------------------------------------------|
 |----------|------------------------------------------------------------|
 |----------|------------------------------------------------------------|
 |-3--------|-2-----------------------------2---------2------------------|
 |-3--------|-0-0-0-0-0-0-0-0-0-0-0-0-0-0-0-0-0-0-0-0-0-0-0-0-0-0-0-0-0--|
 |-1--------|------------------------------------------------------------|

W H Q Q E H..
 
 |----------|------------|----------|
 |----------|------------|----------|
 |----------|------------|----------|
 |-3--------|-2----3--5--|-2--------|
 |-3--------|-2----3--5--|-2--------|
 |-1--------|-0----1--3--|-0--------|

S T T T T T T T T T T T T T T S T T T T S T T T T T T T T W
 
 |-----------------------------------------------------------|------|
 |-----------------------------------------------------------|------|
 |-----------------------------------------------------------|------|
 |-5-----------------------------5---------5-----------------|-3----|
 |-3-3-3-3-3-3-3-3-3-3-3-3-3-3-3-3-3-3-3-3-3-3-3-3-3-3-3-3-3-|-3----|
 |-----------------------------------------------------------|-1----|

W W W W
 
 |----------|----------|----------|------|
 |----------|----------|----------|------|
 |----------|-2--------|-5--------|------|
 |-5--------|-2--------|-5--------|-3----|
 |-5--------|-0--------|-3--------|-3----|
 |-3--------|----------|----------|-1----|

Gtr I
H. E S T T
 
 |---------------------------------------------||
 |-----------------------------------------1-3-||
 |---------------------------------------2-----||
 |-------------------------------------0-------||
 |---------------------------------------------||
 |---------------------------------------------||

|
| Gtrs III, IV
| S T T T T T T T T T T T T T T E Q.
 
 |---------------------------------------------||
 |---------------------------------------------||
 |---------------------------------------------||
 |--------------------------------5------------||
 |-5------------------------------5------------||
 |-3--3-3-3-3-3-3-3-3-3-3-3-3-3-3-3------------||

Break Solo
Q=146
W +H. E E
 
 |------------------|------------------------|
 |-5----------------|-(5)------------[3]b5r1-|
 |------------------|------------------------|
 |------------------|----------------

Important: The song above is NOT stored on the Chordie server. The original song is hosted at www.azchords.com. Chordie works as a search engine and provides on-the-fly formatting. Chordie does not index songs against artists'/composers' will. To remove this song please click here.

Text color:
Chord color:
Chord grids: 
Font size:    
Page size: 

A5 B5 C5 D5 E5
Rate #1 of 2 versions

Login - add to songbook

SHARE PAGE  




You need to log in to post comments