Guitar Tabs, Chords and Lyrics
Server problems seems to be fixed. Chordie has been experiencing problems with songs disappearing. These issues now seems to be fixed, but still verifying the fix. If you find anything strange, please email admin@chordie.com.


Alive   Escape the Fate

 
 PM------| PM----| PM-----| PM----|
 D|---------------------------------------------------------------------------|
 A|---------------------------------------------------------------------------|
 F|------------------------------------------------14-14-14-14----------------|
 C|---------------------------------------------------------------------------|
 G|--------3-----------5---------------3-----------12-12-12-12----------------|
 C|-0-0--0---3-1-0-0-0---7-5-3--0-0--0---3-1-0-0-0----------------------------|
 PM------| PM----| PM-----| PM----|
 D|---------------------------------------------------------------------------|
 A|---------------------------------------------------------------------------|
 F|---------------------------------------------------------------------------|
 C|---------------------------------------------------------------------------|
 G|--------3-----------5---------------3-----------5*-------------------------|
 C|-0-0--0---3-1-0-0-0---7-5-3--0-0--0---3-1-0-0-0----------------------------|
 D|-------------------------------------------------------------------------------|
 A|--------------------------------------------------------------------------15br-|
 F|-10-13-14-13-10-13-14-13-10-13-14-13-10-13-14-13-10-13-14-13-10-13-14-13-------|
 C|-------------------------------------------------------------------------------|
 G|-------------------------------------------------------------------------------|
 C|-------------------------------------------------------------------------------|

 


 


 Start on the 2nd string and tremolo pick all of the notes starting from the 24th (or 22nd) till the 1st


 

 
 D|------------------|
 A|--24N\\\1---------|
 F|------------------|
 C|------------------|
 G|------------------|
 C|------------------|
 D|---------------------------------------------------------------------------|
 A|---------------------------------------------------------------------------|
 F|--14-14-14-14--------------------------------------------------------------|
 C|---------------------------------------------------------------------------|
 G|--12-12-12-12--------------------------------------------------------------|
 C|---------------------------------------------------------------------------|

 


 


 [Verse] 


 


 0:15 - 0:38


 


 

 
 PM-------| PM PM------| PM---|
 D|-------------------|--------------------------------------------------------|
 A|-------------------|--------------------------------------------------------|
 F|-------------------|--------------------------------------------------------| x2
 C|-------------------|--------------------1-----------------------------------|
 G|--------3----------|--------3-----------1-----------------------------------|
 C|-0-0--0---3-1-0----|-0-0--0---3-1-0-0-0-1-----------------------------------| (Repeat the whole thing twice)

 


 (repeat 3 times)


 

 
 D|---------------------------------------------------------------------------|
 A|---------------------------------------------------------------------------|
 F|-7-7-7-7--7-7-7--7--7\14---------------------------------------------------|
 C|---------------------------------------------------------------------------|
 G|-5-5-5-5--5-5-5--5--5\12---------------------------------------------------|
 C|---------------------------------------------------------------------------|

 


 


 [Cborus] 


 


 0:38 - 0:58


 


 

 
 D|---------------------------------------------------------------------------|
 A|---------------------------------------------------------------------------|
 F|10-10-10-10-12-12-12-12-12-12-12-11-11-11-11-11-11-11-11-------------------|
 C|---------------------------------------------------------------------------|
 G|-8--8--8--8-10-10-10-10-10-10-10--9--9--9--9--9--9--9--9-------------------|
 C|---------------------------------------------------------------------------|
 D|---------------------------------------------------------------------------|
 A|---------------------------------------------------------------------------|
 F|10-10-10-10-12-12-12-12-12-12-12-------------------------------------------|
 C|---------------------------------5-5-5-5-5-5-5-5---------------------------|
 G|-8--8--8--8-10-10-10-10-10-10-10-5-5-5-5-5-5-5-5---------------------------|
 C|---------------------------------5-5-5-5-5-5-5-5---------------------------|
 D|---------------------------------------------------------------------------|
 A|---------------------------------------------------------------------------|
 F|10-10-10-10-12-12-12-12-12-12-12-11-11-11-11-11-11-11-11-------------------|
 C|---------------------------------------------------------------------------|
 G|-8--8--8--8-10-10-10-10-10-10-10--9--9--9--9--9--9--9--9-------------------|
 C|---------------------------------------------------------------------------|

 


 


 (tremolo pick all notes from 1 to 14)


 

 
 D|---------------------------------------------------------------------------|
 A|-------------------------------------1\14N---------------------------------|
 F|---------------------------------------------------------------------------|
 C|-3-3-3-3-5-5-5-5-5-5-0-0-0-0-0-0-0-0---------------------------------------|
 G|-3-3-3-3-5-5-5-5-5-5-0-0-0-0-0-0-0-0---------------------------------------|
 C|-3-3-3-3-5-5-5-5-5-5-0-0-0-0-0-0-0-0-------------------------------------=-|

 


 


 [Break] 


 


 0:58 - 1:03


 W (heavy use of whammy bar)


 

 
 D|-10---------------------------------------------------------------------------------|
 A|-13b---------------------------------------------------------------------------20b--|
 F|-----10-13-14-13-10-13-14-13-10-13-14-13-10-13-14-13-10-13-14-13-10-13-14-13--------|
 C|------------------------------------------------------------------------------------|
 G|------------------------------------------------------------------------------------|
 C|------------------------------------------------------------------------------------|

 


 


 [Verse] 


 


 1:03 - 1:25


 


 

 
 PM-------| PM PM------| PM---|
 D|-------------------|--------------------------------------------------------|
 A|-------------------|--------------------------------------------------------|
 F|-------------------|--------------------------------------------------------| x2
 C|-------------------|--------------------1-----------------------------------|
 G|--------3----------|--------3-----------1-----------------------------------|
 C|-0-0--0---3-1-0----|-0-0--0---3-1-0-0-0-1-----------------------------------| (Repeat the whole thing twice)

 


 (repeat 3 times)


 


 (Use a mixture of flanger and chorus)


 

 
 D|---------------------------------------------------------------------------|
 A|---------------------------------------------------------------------------|
 F|-7-7-7-7--7-7-7--7--7\14---------------------------------------------------|
 C|---------------------------------------------------------------------------|
 G|-5-5-5-5--5-5-5--5--5\12---------------------------------------------------|
 C|---------------------------------------------------------------------------|

 


 


 [Cborus] 


 


 1:25 - 1:45


 


 

 
 D|---------------------------------------------------------------------------|
 A|---------------------------------------------------------------------------|
 F|10-10-10-10-12-12-12-12-12-12-12-11-11-11-11-11-11-11-11-------------------|
 C|---------------------------------------------------------------------------|
 G|-8--8--8--8-10-10-10-10-10-10-10--9--9--9--9--9--9--9--9-------------------|
 C|---------------------------------------------------------------------------|
 D|---------------------------------------------------------------------------|
 A|---------------------------------------------------------------------------|
 F|10-10-10-10-12-12-12-12-12-12-12-------------------------------------------|
 C|---------------------------------5-5-5-5-5-5-5-5---------------------------|
 G|-8--8--8--8-10-10-10-10-10-10-10-5-5-5-5-5-5-5-5---------------------------|
 C|---------------------------------5-5-5-5-5-5-5-5---------------------------|
 D|---------------------------------------------------------------------------|
 A|---------------------------------------------------------------------------|
 F|10-10-10-10-12-12-12-12-12-12-12-11-11-11-11-11-11-11-11-------------------|
 C|---------------------------------------------------------------------------|
 G|-8--8--8--8-10-10-10-10-10-10-10--9--9--9--9--9--9--9--9-------------------|
 C|---------------------------------------------------------------------------|
 D|---------------------------------------------------------------------------|
 A|---------------------------------------------------------------------------|
 F|---------------------------------------------------------------------------|
 C|-3-3-3-3-5-5-5-5-5-5-0-0-0-0-0-0-0-0---------------------------------------|
 G|-3-3-3-3-5-5-5-5-5-5-0-0-0-0-0-0-0-0---------------------------------------|
 C|-3-3-3-3-5-5-5-5-5-5-0-0-0-0-0-0-0-0---------------------------------------|

 


 


 [Break Down] 


 


 1:45 - 1:55


 


 PM----|


 

 
 D|---------------------------------------------------------------------------|
 A|---------------------------------------------------------------------------|
 F|---------------------------------------------------------------------------|
 C|---------------------------------------------------------------------------|
 G|---------------------------------------------------------------------------|
 C|-15-0-13-0-12-0-10-0-12-0-12-0-15-0-13-0-12--0-0-0-1*----------------------| x2

 


 


 [Solo] 


 


 1:55 - 2:16


 


 

 
 D|---------------18----------------------------------------------------------|
 A|-19~--19-20-22----22-20-19-20-19/15-15-15/10-10----------------------------|
 F|---------------------------------------------------------------------------|
 C|---------------------------------------------------------------------------|
 G|---------------------------------------------------------------------------|
 C|---------------------------------------------------------------------------|
 D|--------------18-------------18-21-21b-------------------------------------|
 A|-19~--19-20-22----22-20-19-20----------------------------------------------|
 F|---------------------------------------------------------------------------|
 C|---------------------------------------------------------------------------|
 G|---------------------------------------------------------------------------|
 C|---------------------------------------------------------------------------|

 


 


 (Pick every note)


 

 
 PM---------------|
 D|-------14-15-14----------14-15-17-15-14----------------------------------------------------|
 A|-13-15----------15-13-15----------------15-13-12-------------------------------------------|
 F|-------------------------------------------------14-12-11----------------------------------|
 C|----------------------------------------------------------13-12-10-------------------------|
 G|-------------------------------------------------------------------13-12-10D---------------|
 C|-------------------------------------------------------------------------------------------|
 PM------------------------------------------------|
 D|---------------------------------------------------------------------------|
 A|---------------------------------------------------------------------------|
 F|----------------------------11-------11--12--14--14br----------------------|
 C|----------10-------10-12-13----13-12---------------------------------------|
 G|-10-12-13----13-12---------------------------------------------------------|
 C|---------------------------------------------------------------------------|
 D|---------------18----------------------------------------------------------|
 A|-19~--19-20-22----22-20-20br-----------------------------------------------|
 F|---------------------------------------------------------------------------|
 C|---------------------------------------------------------------------------|
 G|---------------------------------------------------------------------------|
 C|---------------------------------------------------------------------------|

 


 


 (Sweep Picking)


 


 

 
 D|--15p12----------12-18p15----------15--20b---------------------------------|
 A|--------14----14----------17----17-----------------------------------------|
 F|-----------15----------------18--------------------------------------------|
 C|---------------------------------------------------------------------------|
 G|---------------------------------------------------------------------------|
 C|---------------------------------------------------------------------------|

 


 


 [Break] 


 


 2:16 - 2:26


 


 ("Survive...")


 


 

 
 PM--------|
 D|---------------------------------------------------------------------------|
 A|---------------------------------------------------------------------------|
 F|---------------------------------------------------------------------------|
 C|-5-5-5-5-5-5-5-5-5-5-5-5---------------------------------------------------|
 G|-5-5-5-5-5-5-5-5-5-5-5-5---------------------------------------------------|
 C|-5-5-5-5-5-5-5-5-5-5-5-5---------------------------------------------------|

 


 


 [Cborus] 


 


 2:26 - 2:56


 


 

 
 D|---------------------------------------------------------------------------|
 A|---------------------------------------------------------------------------|
 F|10-10-10-10-12-12-12-12-12-12-12-11-11-11-11-11-11-11-11-------------------|
 C|---------------------------------------------------------------------------|
 G|-8--8--8--8-10-10-10-10-10-10-10--9--9--9--9--9--9--9--9-------------------|
 C|---------------------------------------------------------------------------|
 D|---------------------------------------------------------------------------|
 A|---------------------------------------------------------------------------|
 F|---------------------------------------------------------------------------|
 C|-3-3-3-3-5-5-5-5-5-5-0-0-0-0-0-0-0-0---------------------------------------|
 G|-3-3-3-3-5-5-5-5-5-5-0-0-0-0-0-0-0-0---------------------------------------|
 C|-3-3-3-3-5-5-5-5-5-5-0-0-0-0-0-0-0-0---------------------------------------|
 D|---------------------------------------------------------------------------|
 A|---------------------------------------------------------------------------|
 F|10-10-10-10-12-12-12-12-12-12-12-11-11-11-11-11-11-11-11-------------------|
 C|---------------------------------------------------------------------------|
 G|-8--8--8--8-10-10-10-10-10-10-10--9--9--9--9--9--9--9--9-------------------|
 C|---------------------------------------------------------------------------|
 D|---------------------------------------------------------------------------|
 A|---------------------------------------------------------------------------|
 F|10-10-10-10-12-12-12-12-12-12-12-------------------------------------------|
 C|---------------------------------5-5-5-5-5-5-5-5---------------------------|
 G|-8--8--8--8-10-10-10-10-10-10-10-5-5-5-5-5-5-5-5---------------------------|
 C|---------------------------------5-5-5-5-5-5-5-5---------------------------|
 D|---------------------------------------------------------------------------|
 A|---------------------------------------------------------------------------|
 F|10-10-10-10-12-12-12-12-12-12-12-11-11-11-11-11-11-11-11-------------------|
 C|---------------------------------------------------------------------------|
 G|-8--8--8--8-10-10-10-10-10-10-10--9--9--9--9--9--9--9--9-------------------|
 C|---------------------------------------------------------------------------|
 D|---------------------------------------------------------------------------|
 A|---------------------------------------------------------------------------|
 F|---------------------------------------------------------------------------|
 C|-3-3-3-3-5-5-5-5-5-5-0-0-0-0-0-0-0-0---------------------------------------|
 G|-3-3-3-3-5-5-5-5-5-5-0-0-0-0-0-0-0-0---------------------------------------|
 C|-3-3-3-3-5-5-5-5-5-5-0-0-0-0-0-0-0-0---------------------------------------|

 


 


 [Outro] 


 


 2:56 - 3:07


 


 PM-----|


 

 
 D|---------------------------------------------------------------------------|
 A|---------------------------------------------------------------------------|
 F|---------------------------------------------------------------------------|
 C|---------------------------------------------------------------------------|
 G|---------------------------------------------------------------------------|
 C|-15-0-13-0-12-0-10-0-12-0-12-0-15-0-13-0-12--0-0-0-1*----------------------| x2


Important: The song above is NOT stored on the Chordie server. The original song is hosted at www.azchords.com. Chordie works as a search engine and provides on-the-fly formatting. Chordie does not index songs against artists'/composers' will. To remove this song please click here.

This song is displayed as text-only. Transposing and tuning is only available for chordpro-songs.
Rate #1 of 1 versions

Jango Player

Login - add to songbook

SHARE PAGE  




You need to log in to post comments