Guitar Tabs, Chords and Lyrics
Server problems seems to be fixed. Chordie has been experiencing problems with songs disappearing. These issues now seems to be fixed, but still verifying the fix. If you find anything strange, please email admin@chordie.com.


A Gentleman's Excuse Me  Fish

Capo 5
Intro: Fsus2
Do you st[Fsus2]ill keep paper fl[C/E]owers in the b[Gsus4/D]ottom-drawer w[C/E]ith your belgian lace
[Fsus2] Taking them [C/E]out every year to watch the c[Asus4]olours fade aw[Am]ay
Do you st[Fsus2]ill believe in f[C/E]airy tales in b[A#/D]attlements of sh[A#]ining castles
[Am] Safe from the dr[G/A]agons that l[Am]ie beneath the hill
Are you st[Fsus2]ill a Russian pr[C/E]inces r[Gsus4/D]escued by a g[C/E]ipsy-dancer
[Fsus2] To anyone who'll l[C/E]isten, is that a st[Asus4]ory you still t[Am]ell
You l[Fsus2]ive a life of f[C/E]antasy, your d[A#/D]iary rom[A#]antic fiction
[F] Can't you see it's h[G/F]ard for me, can you s[F]ee what I'm trying to s[G]ay[G7]
It's a g[C]entleman's excuse me so I'll do [Em]one step to the side
Can you g[F]et it inside your head, I'm tired of d[C]ancing
[C] For [G/B]every [Am]one step forward[Am/G] I'm taking tw[F]o steps back
Can you g[F]et it ins[C/E]ide your h[Gsus4/D]ead, I'm t[G]ired of d[Asus4]ancing
| |Am |Asus4 |Am |
|F |C |A#/D |A# |
|Asus4 |Am |Asus4 |Am |
I know you st[C/G]ill like Old-fashioned waltzes
[G] Your reflection in the m[C/G]irror that you flirt with as you gl[G]ide across the floor
But if I t[Am]old you the music's over, w[G]ould you want to hear
That your d[Am]ance card is empty, that there's n[G]o-one really there[G7]
Do you st[Fsus2]ill believe in S[C/E]anta Claus, there's a m[Gsus4/D]illionaire l[C/E]ooking for your fr[Fsus2]ont door
With the k[C/E]ey to a life that you'd n[Asus4]ever underst[Am]and
And [Fsus2]all I have to [C/E]offer is the l[A#/D]ove I have, it's fr[A#]eely given
[F] You'll see it's v[G/F]alue when you s[F]ee what I'm trying to s[G]ay[G7]
It's a g[C]entleman's excuse me so I'll do [Em]one step to the side
Can you g[F]et it inside your head, I'm tired of d[C]ancing
[C] For [G/B]every [Am]one step forward[Am/G] I'm taking tw[F]o steps back
Can you g[F]et it ins[C/E]ide your h[Gsus4/D]ead
That fr[G]om this [Am]one step forward there's no t[F]urning back
Can you g[F]et it ins[C/E]ide your h[Gsus4/D]ead, I'm t[G]ired of d[Asus4]ancing[Am] [Asus4] [Am]
We're finished d[Asus4]ancing[Am] [Asus4] [Am]
___________________________________________________________________________________________________
___________________________________________________________________________________________________
This is the tab for this song:
All notes are relative to the capo
Intro:
 
 e|-----3-------3-------3-------3-------3-------3----------------|
 B|-1-------0---------------0-------1-------0---------------0----|
 G|---0---0---0---0-2-0---0---0---0---0---0---0---0-2-0---0---0--|
 D|-----------------------------------------------------0--------|
 A|--------------------------------------------------------------|
 E|--------------------------------------------------------------|

Verses:
[Fsus2] [C/E] [Gsus4/D] [C/E] [Fsus2] [C/E] [Asus4] [Am]  
 
 e|---------------------------------------------------------------|
 B|-1---1---1---1---3---3---1---1---1---1---1---1---3---3---1---1-|
 G|-0---0---0---0---5---5---0---0---0---0---0---0---2---2---2---2-|
 D|-3---3---2---2---0---0---2---2---3---3---2---2---2---2---2---2-|
 A|---------------------------------------------------------------|
 E|---------------------------------------------------------------|

[Fsus2] [C/E] [A#/D] [A#]  
 
 e|-------------------------------|
 B|-1---1---1---1---3---3---3---3-|
 G|-0---0---0---0---3---3---3---3-|
 D|-3---3---2---2---0---0---3---3-|
 A|-------------------------------|
 E|-------------------------------|

Am G/A Am or F G/F F G
 
 e|---------------------------|/|-------------------------------|
 B|-1---1---3---3---1---1---1-|/|-1---1---3---3---1---1---3---3-|
 G|-2---2---0---0---2---2-2---|/|-2---2---0---0---2---2---0-0---|
 D|-2---2---0---0---2---2-----|/|-3---3---3---3---3---3---0-----|
 A|---------------------------|/|-------------------------------|
 E|---------------------------|/|-------------------------------|

Chorus: You can just strum the chorus if you like. Or else play this:
[C] [Em] [F] [C] [G/B]  
 
 e|---------------------------------------------------------------|
 B|-1---1---1---1---0---0---0---0---1---1---1---1---1---1---1---3-|
 G|-0---0---0---0---0---0---0---0---2---2---2---2---0---0---0---0-|
 D|-2---2---2---2---2---2---2---2---3---3---3---3---2---2---2---0-|
 A|-3---3---3---3-----------------------------------3---3---3---2-|
 E|-----------------0---0---0---0---1---1---1---1-----------------|

[Gsus4/D] 
[Am] [Am/G] [F] [F] [C/E] [/] [G] [Asus4] [Am]  
 
 e|---------------------------------------------------------------|
 B|-1---1---1---1---1---1---1---1---1---1---1---0---3---3---1---1-|
 G|-2---2---2---2---2---2---2---2---2---0---0---0---2---2---2---2-|
 D|-2---2---2---2---3---3---3---3---3---2---0---0---2---2---2---2-|
 A|-0---0---0-------------------------------5-------0---0---0---0-|
 E|-------------3---1---1---1---1---1---0-------3-----------------| 


Important: The song above is NOT stored on the Chordie server. The original song is hosted at www.azchords.com. Chordie works as a search engine and provides on-the-fly formatting. Chordie does not index songs against artists'/composers' will. To remove this song please click here.

Text color:
Chord color:
Chord grids: 
Font size:    
Page size: 

A# A#/D Am Asus4 C C/E C/G Em F Fsus2 G G/B G/F G7
Rate #1 of 4 versions

Login - add to songbook

SHARE PAGE  




You need to log in to post comments