Guitar Tabs, Chords and Lyrics
Major upgrade!! After one year development the new version of Chordie is now online! Please give feedback.


Times Like These  Foo Fighters

[Start of Song] 
D U D U D D U U D D U D
 
 e|---2-2-2-2-2---2-2---2-2---2-2-2----|
 B|---3-3-3-3-3---3-3---3-3---3-3-3----|
 G|---0-2-2-0-2---0-2---0-2---0-2-2----| x3
 D|---0-0-0-0-0---0-0---0-0---0-0-0----|
 A|------------------------------------|
 E|------------------------------------|

[D]I, I'm a one way [Am]motorw[Am7]ay
C Em Em7 D (riff)
I'm the one that drives away, follows you back home
D U D U D D U U D D U D
 
 e|---2-2-2-2-2---2-2---2-2---2-2-2----|
 B|---3-3-3-3-3---3-3---3-3---3-3-3----|
 G|---0-2-2-0-2---0-2---0-2---0-2-2----|
 D|---0-0-0-0-0---0-0---0-0---0-0-0----|
 A|------------------------------------|
 E|------------------------------------|

[D]I, I'm a streetlight [Am]shin[Am7]ing
C Em Em7 D (riff)
I'm a white light blinding bright, burning off and on
D U D U D D U U D D U D
 
 e|---2-2-2-2-2---2-2---2-2---2-2-2----|
 B|---3-3-3-3-3---3-3---3-3---3-3-3----|
 G|---0-2-2-0-2---0-2---0-2---0-2-2----| x2
 D|---0-0-0-0-0---0-0---0-0---0-0-0----|
 A|------------------------------------|
 E|------------------------------------|

[Cborus] 
It's [C]times like these you [Em]learn to [Em7]live aga[D]in
It's [C]times like these you [Em]give and [Em7]give aga[D]in
It's [C]times like these you [Em]learn to [Em7]love aga[D]in
C Em Em7 D (riff)
It's times like these time and time again
D U D U D D U U D D U D
 
 e|---2-2-2-2-2---2-2---2-2---2-2-2----|
 B|---3-3-3-3-3---3-3---3-3---3-3-3----|
 G|---0-2-2-0-2---0-2---0-2---0-2-2----| x2
 D|---0-0-0-0-0---0-0---0-0---0-0-0----|
 A|------------------------------------|
 E|------------------------------------|

[Verse] 
[D]I, I'm a new day [Am]rising[Am7]
C Em Em7 D (riff)
I'm a brand new sky that hangs stars upon tonight
D U D U D D U U D D U D
 
 e|---2-2-2-2-2---2-2---2-2---2-2-2----|
 B|---3-3-3-3-3---3-3---3-3---3-3-3----|
 G|---0-2-2-0-2---0-2---0-2---0-2-2----|
 D|---0-0-0-0-0---0-0---0-0---0-0-0----|
 A|------------------------------------|
 E|------------------------------------|

[D]I, I'm a little di[Am]vided[Am7]
C Em Em7 D (riff)
Do I stay or run away and leave it all behind
D U D U D D U U D D U D
 
 e|---2-2-2-2-2---2-2---2-2---2-2-2----|
 B|---3-3-3-3-3---3-3---3-3---3-3-3----|
 G|---0-2-2-0-2---0-2---0-2---0-2-2----| x2
 D|---0-0-0-0-0---0-0---0-0---0-0-0----|
 A|------------------------------------|
 E|------------------------------------|

[Cborus] 
It's [C]times like these you [Em]learn to [Em7]live aga[D]in
It's [C]times like these you [Em]give and [Em7]give aga[D]in
It's [C]times like these you [Em]learn to [Em7]love aga[D]in
It's [C]times like these [Em]time and [Em7]time again
[Interlude] 
[D] [C] [Em7] [D] [C] [Em7] [D]  
[lead part] 
(mess around with it)
 
 e|------------------------------------------|
 B|------------------------------------------|
 G|----------12--11----------12--11----------|
 D|--12--10----------12--10------------------|
 A|----------------------------------12--10--|
 E|------------------------------------------|

D U D U D D U U D D U D
 
 e|---2-2-2-2-2---2-2---2-2---2-2-2----|
 B|---3-3-3-3-3---3-3---3-3---3-3-3----|
 G|---0-2-2-0-2---0-2---0-2---0-2-2----| x2
 D|---0-0-0-0-0---0-0---0-0---0-0-0----|
 A|------------------------------------|
 E|------------------------------------|

[Cborus] 
It's [C]times like these you [Em]learn to [Em7]live aga[D]in
It's [C]times like these you [Em]give and [Em7]give aga[D]in
It's [C]times like these you [Em]learn to [Em7]love aga[D]in
It's [C]times like these [Em]time and [Em7]time again
It's [C]times like these you [Em]learn to [Em7]live aga[D]in
It's [C]times like these you [Em]give and [Em7]give aga[D]in
It's [C]times like these you [Em]learn to [Em7]love aga[D]in
It's [C]times like these [Em]time and [Em7]time again
[Outro] 
[C] [Em7] [D] [C] [Em7] [D]  
[C] [Em7] [D] [C] [Em7] [D] [C] 

Important: The song above is NOT stored on the Chordie server. The original song is hosted at www.azchords.com. Chordie works as a search engine and provides on-the-fly formatting. Chordie does not index songs against artists'/composers' will. To remove this song please click here.

Text color:
Chord color:
Chord grids: 
Font size:    
Page size: 

Am Am7 C D Em Em7
Rate #1 of 17 versions

Login - add to songbook

SHARE PAGE  



You need to log in to post comments