Guitar Tabs, Chords and Lyrics
Major upgrade!! After one year development the new version of Chordie is now online! Please give feedback.


Two as One   From First to Last

 
 D[-----------------------------------------------------------------------|
 A[-----------------------------------------------------------------------|
 F[-----------------------------------------------------------------------|
 C[-----------------x1----------------------------------------------------|
 G[---x3----x9-----6------------------------------------------------------|
 C[--5-----8--------------------------------------------------------------|

 


 Verse/Opening


 


 

 
 D[-----------------------10(x3)------]
 A[----------------11(x3)-------------]
 F[-----------------------------------]
 C[--5-----1-----8------8-----3-------]
 G[--5-----1-----8------8-----3-------]
 C[--5(x18)1(x6--8(x3)--8(x3)-3(x12)--]

 


 Chorus


 


 

 
 [-------------------------------------------] [-----17(x3)--18(x8)--]
 [--12(x3)--14(x3)---15(x4)--14(x1)--12(x1)--] [--15(x3)-------------]
 [---------------12(x3)----------------------]x2[---------------------]x2
 [-------------------------------------------] [---------------------]
 [-------------------------------------------] [---------------------]
 [-------------------------------------------] [---------------------]

 


 Post Chorus


 


 

 
 [--18(x6)---18(x4)--17(x6)--17(x4)--15(x6)---15(x4)--17(x6)---1-------|7(x4)
 [------15(x6)----------15(x6)----------15(x6)-----------15(x6)--------|
 [---------------------------------------------------------------------| x2
 [---------------------------------------------------------------------|
 [---------------------------------------------------------------------|
 [---------------------------------------------------------------------|

 


 Bridge


 THEN the buildup to the "Two as one.. A slight addiction"


 

 
 [--18(x6)---20(x10)---22(keep picking)-----------------------------|
 [------------------------------------------------------------------|
 [------------------------------------------------------------------|
 [------------------------------------------------------------------|
 [------------------------------------------------------------------|
 [------------------------------------------------------------------|

 


 


 Ending


 

 
 [--------11(x10)] [----------|
 [---------------] [----------|
 [---------------]x4 End on [--14------|(Ring)
 [---12(x3)------] [----------|
 [-----13(x3)----] [----------|
 [---------------] [----------|


Important: The song above is NOT stored on the Chordie server. The original song is hosted at www.azchords.com. Chordie works as a search engine and provides on-the-fly formatting. Chordie does not index songs against artists'/composers' will. To remove this song please click here.

This song is displayed as text-only. Transposing and tuning is only available for chordpro-songs.
Rate #1 of 1 versions

Jango Player

Login - add to songbook

SHARE PAGE  




You need to log in to post comments