Guitar Tabs, Chords and Lyrics
Major upgrade!! After one year development the new version of Chordie is now online! Please give feedback.


Rainy Day People  Gordon Lightfoot

Gtr I (E A D G B E) - 'Acoustic Guitar w/ capo 2nd fret'
Gtr II (E A D G B E) - 'Acoustic Guitar w/ capo 2nd fret'
Gtr III (E A D G B E) - 'Acoustic Guitar w/ capo 2nd fret'
Intro
Q=110
[A]  
[4/4] Gtr I (Ac. Gtr. w/ capo 2nd fret)
[E] [E] [E] [E] [E] [E] [E] [E] [E] [E] [E] [E] [E] [E] [E] [E] [E] [E] [E] [E] [E] [E] [E] [E] [E] [E] [E] [E] [E] [E] [E] [E]  
 
 |-----------------|---------------------|-----------------|-----------------||
 |-----2-------2---|-----2--------2------|-----2-------2---|-----2-------2---||
 |---2---2---2---2-|---2---2----2----2---|---2---2---2---2-|---2---2---2---2-||
 |---------6-------|-4-------2-----------|---------2-------|---------2-------||
 |-0---------------|---------------------|-0---------------|-0---------------||
 |-----------------|---------------------|-----------------|-----------------||

|
| Gtr II (Ac. Gtr. w/ capo 2nd fret)
| Q E E H H Q. +E Q E E H H H
 
 |---------9-------|-7-------5------(5)\-|---------0-------|-----------------||
 |-----------------|---------------------|-----------------|-0-------2-------||
 |-------9---------|-7-------6------(6)\-|-------1---------|-----------------||
 |-----------------|---------------------|-----------------|-0-------2-------||
 |-----------------|---------------------|-----------------|-----------------||
 |-----------------|---------------------|-----------------|-----------------||

|
| Gtr III (Ac. Gtr. w/ capo 2nd fret)
| Q E E H H Q. +E H H H H
 
 |-----------------|---------------------|-----------------|-----------------||
 |-----------------|-3-------2------(2)\-|---------2-------|-3---------------||
 |-------2-1-------|---------------------|-----------------|---------2-------||
 |-----------------|-4-------2------(2)\-|---------2-------|-4---------------||
 |-----------------|---------------------|-----------------|---------4-------||
 |-----------------|---------------------|-----------------|-----------------||

1st - 3rd Verses
$
[A] [Bm7] 
[E] [E] [E] [E] [E] [E] [E] [E] [E] [E] [E] [E] [E] [E] [E] [E] [E] [E] [E] [E] [E] [E] [E] [E] [E] [E] [E] [E] [E] [E] [E] [E]  
 
 ||--------------------|-----------------|-----2-------2---|-----2-------2---|
 ||o-----2---------2---|-----2-------2---|-----3-------3---|-----3-------3---|
 ||----2---2-----2---2-|---2---2---2---2-|---2---2---2---2-|---2---2---2---2-|
 ||-----------2--------|---------2-------|---------4-------|---------4-------|
 ||o-0-----------------|-0---------------|-2---------------|-2---------------|
 ||--------------------|-----------------|-----------------|-----------------|

|
| Q E E H H H E E E E E E E E E E E E E E E E
 
 ||-----------0--------|-----------------|-----------------|-----------------|
 ||o-------------------|-3-------2-------|-----3-------2---|-3p2-------------|
 ||--------1-(1)-------|-----------------|-------2---4---4-|-----4-2-1-------|
 ||--------------------|-4-------2-------|---4-----4-------|-----------4-2---|
 ||o-------------------|-----------------|-2---------------|---------------4-|
 ||--------------------|-----------------|-----------------|-----------------|

[D] [E] [A] 
[E] [E] [E] [E] [E] [E] [E] [E] [E] [E] [E] [E] [E] [E] [E] [E] [E] [E] [E] [E] [E] [E] [E] [E] [E] [E] [E] [E] [E] [E] [E] [E]  
 
 |-----2---------2---|-----------------|-----0---------0---|-------------------||
 |-----3---------3---|-----0-------0---|-------------------|-------2-------2---||
 |---2---2-----2---2-|-----1-------1---|---2---2-----2---2-|-----2---2---2---2-||
 |-0-------0---------|---2---2---2---2-|----------2--------|-----------2-------||
 |-------------------|---------2-------|-0-----------------|--0----------------||
 |-------------------|-0---------------|-------------------|-------------------||

|
| E E E E S S E E E E E E E E E E E E E E E +H +E E E E E E E E
 
 |-----2---4p2-------|-----4---4---4---|-2-0---------------|---------------0---||
 |-----3-------3-----|-------5---5---5-|-3-2-3-2-(2)-------|-(2)-0-2---3-0---3-||
 |---2---2-------2---|---4-------------|-----4-2-(2)-------|-(2)-----2---------||
 |-0---------------4-|-6---------------|-------------------|-------------------||
 |-------------------|-----------------|-------------------|-------------------||
 |-------------------|-----------------|-------------------|-------------------||

|
| Gtr III
| W Q E E E E E E E E E E E E E E E Q E E E E E
 
 |-------------------|-----------------|-------------------|-------------------||
 |-------------------|-----------------|-------------------|---------2-----2---||
 |-------------------|-----------------|-------------2---2-|-----4-----2-2---2-||
 |-------------------|-------2---2---2-|---2---2-----------|-----------------2-||
 |-------------------|-----2-------2---|-0---4----0----4---|--0----------------||
 |-------------------|-4-------4-------|-------------------|-------------------||

Chorus
[D] [E] [D] [A] 
[E] [E] [E] [E] [E] [E] [E] [E] [E] [E] [E] [E] [E] [E] [E] [E] [E] [E] [E] [E] [E] [E] [E] [E] [E] [E] [E] [E] [E] [E] [E] [E]  
 
 |-----------------|-----0-------0---|-----------------|------------------|
 |-----3-------3---|-----0-------0---|-----3-------3---|-----2-------2----|
 |---2---2---2---2-|-----------------|---2---2---2---2-|---2---2---2---2--|
 |-0-------4-------|---2---2---2---2-|-0-------4-------|---------2--------|
 |-----------------|---------2-------|-----------------|-0----------------|
 |-----------------|-0---------------|-----------------|------------------|

|
| E E E E E E E E E E E E E E E E E E E E E E E E Q Q Q Q
 
 |-----------------|-4-------4---0---|-----2-----------|------------------|
 |-----3-------3---|---3---3---3-----|-------3-----3---|------------------|
 |---2---2---2---2-|-----4---------0-|---2-------2---2-|-----2---1---0----|
 |-0-------4-------|-----------------|-4-------4-------|------------------|
 |-----------------|-----------------|-----------------|-0----------------|
 |-----------------|-----------------|-----------------|------------------|

|
| W E E E E E E E E E E E E E E Q E E E E E E E E
 
 |-----------------|-----------------|-----------------|------------------|
 |-----------------|-----------------|-----3-----------|---------0S2-2----|
 |-----------------|-----------------|-------2-----2---|-------2----------|
 |-----------------|---2---2---2-2---|---4-------4-----|---2-----0S2---2--|
 |-----------------|-----2---------2-|-5-------5-------|-0---4------------|
 |-----------------|-4-------4-------|-----------------|------------------|

To Coda
[D] [E] [D] 
[2/4] 
[E] [E] [E] [E] [E] [E] [E] [E] [E] [E] [E] [E] [E] [E] [E] [E] [E] [E] [E] [E]  
 
 |-----------------|-----0-------0---|---0------|
 |-----3-------3---|---0---0---0-----|-----3----|
 |---2---2---2---2-|---------------2-|-------2--|
 |-0-------0-------|-2-------2-------|-0--------|
 |-----------------|-----------------|----------|
 |-----------------|-----------------|----------|

|
| E E E E E E E E E E E E E E q H
 
 |-----------------|-4---4-----4-----|----------|
 |---3---3---3---3-|---3---3-----3---|----------|
 |-----2-------2---|---------4-------|-2--------|
 |-4-------4-------|-----------------|-4--------|
 |-----------------|-----------------|----------|
 |-----------------|-----------------|----------|

|
| W E E E E E E q H
 
 |-----------------|---0---0---0-----|----------|
 |-----------------|---0---0---0-----|----------|
 |-----------------|-----1-----------|----------|
 |-----------------|-2-------2---2---|----------|
 |-----------------|-----------------|-5--------|
 |-----------------|-----------------|----------|

1.
[A]  
[4/4]  
[E] [E] [E] [E] [E] [E] [E] [E] [E] [E] [E] [E] [E] [E] [E] [E]  
 
 |--------------------|--------------------||
 |------2---------2---|-----2-------2-----o||
 |----2---2-----2---2-|---2---2---2---2----||
 |-----------6--------|-4-------2----------||
 |-0------------------|-------------------o||
 |--------------------|--------------------||

|
| Q E E H H H
 
 |-----------0--------|--------------------||
 |--------------------|-0-------2---------o||
 |--------1-(1)-------|--------------------||
 |--------------------|-0-------2----------||
 |--------------------|-------------------o||
 |--------------------|--------------------||

|
| Q. E H H H
 
 |--------------------|--------------------||
 |-----------2--------|-3-----------------o||
 |-2------------------|---------2----------||
 |-----------2--------|-4------------------||
 |-4------------------|---------4---------o||
 |--------------------|--------------------||

Interlude
2.
[A]  
[E] [E] [E] [E] [E] [E] [E] [E] [E] [E] [E] [E] [E] [E] [E] [E]  
 
 |-----------------|-----------------|
 |-----2-------2---|-----2-------2---|
 |---2---2---2---2-|---2---2---2---2-|
 |---------2-------|---------2-------|
 |-0---------------|-0---------------|
 |-----------------|-----------------|

|
| W E E E E E E E E
 
 |-----------------|-----------------|
 |-2---------------|-----2-------2---|
 |-2---------------|---2---2---2---2-|
 |-2---------------|-0---------------|
 |-----------------|---------4-------|
 |-----------------|-----------------|

|
| W E E E E E E e E
 
 |-----------------|-----0-----------|
 |-----------------|-2h3---2---------|
 |-2---------------|---------2-2-1-0-|
 |-2---------------|-----------------|
 |-4---------------|-----------------|
 |-----------------|-----------------|

[Bm7]  
[E] [E] [E] [E] [E] [E] [E] [E] [E] [E] [E] [E] [E] [E] [E] [E]  
 
 |-----2---------2---|-----------2----------2---|
 |-----3---------3---|-----------3----------3---|
 |---2---2-----2---2-|--------2----2------2---2-|
 |----------4--------|-----------------4--------|
 |-2-----------------|--2-----------------------|
 |-------------------|--------------------------|

|
| >
| E E E E E E E E E a E Q +H
 
 |-----2---------7s9-|--9-------10---(10)-------|
 |-----3-------------|--------------------------|
 |---2---2-----2-7s9-|-----9s11-----------------|
 |----------4--------|--------------------------|
 |-2-----------------|--------------------------|
 |-------------------|--------------------------|

|
| >
| E E E E +H +H. Q
 
 |-------------------|--------------------------|
 |-------------------|--------------------------|
 |---4---4-(4)-------|-(4)----------------------|
 |-4-----------------|--------------------------|
 |-------------------|--------------------------|
 |-------------------|--------------------------|

[D] [E]  
[E] [E] [E] [E] [E] [E] [E] [E] [E] [E] [E] [E] [E] [E] [E] [E]  
 
 |-----2-------2---|-------------------|
 |-----3-------3---|-------0-------0---|
 |---2---2---2---2-|-------1-------1---|
 |-0-------0-------|-----2---2---2---2-|
 |-----------------|-----------2-------|
 |-----------------|--0----------------|

|
| W W
 
 |-----------------|-------------------|
 |-----------------|-------------------|
 |-----------------|-------------------|
 |-----------------|-------------------|
 |-----------------|-------------------|
 |-----------------|-------------------|

|
| Q E E E E E E +Q E E E E E E
 
 |-5---5-5-5-4-2---|-------------2-----|
 |---------------5-|-(5)---5-2-5---5s3-|
 |-----------------|-------------------|
 |-----------------|-------------------|
 |-----------------|-------------------|
 |-----------------|-------------------|

[A]  
[E] [E] [E] [E] [E] [E] [E] [E] [E] [E] [E] [E] [E] [E] [E] [E]  
 
 |-----0---------0---|--------------------||
 |-------------------|-------2-------2----||
 |---2---2-----2---2-|-----2---2---2---2--||
 |----------2--------|-----------2--------||
 |-0-----------------|--0-----------------||
 |-------------------|--------------------||

|
| W Q E E E E E E
 
 |-------------------|--------------------||
 |-------------------|-----------3-----3--||
 |-------------------|---------2---2p0----||
 |-------------------|--------------------||
 |-------------------|--------------------||
 |-------------------|--------------------||

|
| >
| E Q E +H +H. Q
 
 |-------------------|--------------------||
 |-3-2---5-(5)-------|-(5)----------------||
 |-------------------|--------------------||
 |-------------------|--------------------||
 |-------------------|--------------------||
 |-------------------|--------------------||

Chorus
[D] [E] [D] [A] 
[E] [E] [E] [E] [E] [E] [E] [E] [E] [E] [E] [E] [E] [E] [E] [E] [E] [E] [E] [E] [E] [E] [E] [E] [E] [E] [E] [E] [E] [E] [E] [E]  
 
 |-----------------|-----0-------0---|-----------------|------------------|
 |-----3-------3---|-----0-------0---|-----3-------3---|-----2-------2----|
 |---2---2---2---2-|-----------------|---2---2---2---2-|---2---2---2---2--|
 |-0-------4-------|---2---2---2---2-|-0-------4-------|---------2--------|
 |-----------------|---------2-------|-----------------|-0----------------|
 |-----------------|-0---------------|-----------------|------------------|

|
| E E E E E E E E E E E E E E E E E E E E E E E E Q Q Q Q
 
 |-----------------|-4-------4---0---|-----2-----------|------------------|
 |-----3-------3---|---3---3---3-----|-------3-----3---|------------------|
 |---2---2---2---2-|-----4---------0-|---2-------2---2-|-----2---1---0----|
 |-0-------4-------|-----------------|-4-------4-------|------------------|
 |-----------------|-----------------|-----------------|-0----------------|
 |-----------------|-----------------|-----------------|------------------|

|
| W E E E E E E E E E E E E E E Q E E E E E E E E
 
 |-----------------|-----------------|-----------------|------------------|
 |-----------------|-----------------|-----3-----------|---------0S2-2----|
 |-----------------|-----------------|-------2-----2---|-------2----------|
 |-----------------|---2---2---2-2---|---4-------4-----|---2-----0S2---2--|
 |-----------------|-----2---------2-|-5-------5-------|-0---4------------|
 |-----------------|-4-------4-------|-----------------|------------------|

[D] [E] [D] 
[2/4] 
[E] [E] [E] [E] [E] [E] [E] [E] [E] [E] [E] [E] [E] [E] [E] [E] [E] [E] [E] [E]  
 
 |-----------------|-----0-------0---|---0-----|
 |-----3-------3---|---0---0---0-----|-----3---|
 |---2---2---2---2-|---------------2-|-------2-|
 |-0-------0-------|-2-------2-------|-0-------|
 |-----------------|-----------------|---------|
 |-----------------|-----------------|---------|

|
| E E E E E E E E E E E E E E q H
 
 |-----------------|-4---4-----4-----|---------|
 |---3---3---3---3-|---3---3-----3---|---------|
 |-----2-------2---|---------4-------|-2-------|
 |-4-------4-------|-----------------|-4-------|
 |-----------------|-----------------|---------|
 |-----------------|-----------------|---------|

|
| W E E E E E E q H
 
 |-----------------|---0---0---0-----|---------|
 |-----------------|---0---0---0-----|---------|
 |-----------------|-----1-----------|---------|
 |-----------------|-2-------2---2---|---------|
 |-----------------|-----------------|-5-------|
 |-----------------|-----------------|---------|

D.S. al Coda
[A]  
[4/4]  
[E] [E] [E] [E] [E] [E] [E] [E] [E] [E] [E] [E] [E] [E] [E] [E] [E] [E] [E] [E] [E] [E] [E] [E] [E] [E] [E] [E] [E] [E] [E] [E]  
 
 |-----------------|---------------------|-----------------|-------------------||
 |-----2-------2---|-----2--------2------|-----2-------2---|-----2-------2-----||
 |---2---2---2---2-|---2---2----2----2---|---2---2---2---2-|---2---2---2---2---||
 |---------6-------|-4-------2-----------|---------2-------|---------2---------||
 |-0---------------|---------------------|-0---------------|-0-----------------||
 |-----------------|---------------------|-----------------|-------------------||

|
| Q E E H H Q. +E Q E E H H H
 
 |---------9-------|-7-------5------(5)\-|---------0-------|-------------------||
 |-----------------|---------------------|-----------------|-0-------2---------||
 |-------9---------|-7-------6------(6)\-|-------1---------|-------------------||
 |-----------------|---------------------|-----------------|-0-------2---------||
 |-----------------|---------------------|-----------------|-------------------||
 |-----------------|---------------------|-----------------|-------------------||

|
| Q E E H H Q. +E H H H H
 
 |-----------------|---------------------|-----------------|-------------------||
 |-----------------|-3-------2------(2)\-|---------2-------|-3-----------------||
 |-------2-1-------|---------------------|-----------------|---------2---------||
 |-----------------|-4-------2------(2)\-|---------2-------|-4-----------------||
 |-----------------|---------------------|-----------------|---------4---------||
 |-----------------|---------------------|-----------------|-------------------||

Outro
&
[A] [D] 
[E] [E] [E] [E] [E] [E] [E] [E] [E] [E] [E] [E] [E] [E] [E] [E] [E] [E] [E] [E] [E] [E] [E] [E]  
 
 |-------------------|-------------------||-------------2---|
 |------2--------2---|------2--------2---||-----3-------3---|
 |----2---2----2---2-|----2---2----2---2-||---2---2---2---2-|
 |----------2--------|-------------------||-0-------4-------|
 |-0-----------------|-5--------4--------||-----------------|
 |-------------------|-------------------||-----------------|

|
| Q. E Q. E Q. E E E E E E E E E E E E E
 
 |-5--------9--------|-7--------5----3---||-----2-------2---|
 |-------------------|-------------------||-------3-------3-|
 |-6------9--------7-|--------6----4---0-||---2-------2-----|
 |-------------------|-------------------||-0-------4-------|
 |-------------------|-------------------||-----------------|
 |-------------------|-------------------||-----------------|

|
| Q. E H H Q. E E E E E E E E E
 
 |-------------------|-------------------||-----2-------2---|
 |----------2--------|-0-----------------||-------3-------3-|
 |-2-----------------|----------2------2-||---2-------2-----|
 |----------2--------|-0-----------------||-0-------4-------|
 |-4-----------------|----------4--------||-----------------|
 |-------------------|-------------------||-----------------|

H.=H
[E] [D] [A]  
E E E E E E E E [2/4] Q. E [4/4] E E E E H +W
 
 |-----0------------|----------|---------0----|-(0)----*|
 |--------------0---|-^3-------|-------2------|--------*|
 |---1---1---1----2-|-^2-------|-----2--------|--------*|
 |-2-------2--------|-^0-------|---2----------|--------*|
 |------------------|-^0-----0-|-0------------|--------*|
 |------------------|----------|--------------|--------*|

|
| E E E E E E q E E E E W W
 
 |-----4--------4---|-^2p0-----|--------------|--------*|
 |---3---3---3------|-^3---3-2-|--------------|--------*|
 |-4-------4--------|-^2-------|--------------|--------*|
 |------------------|-^0-------|--------------|--------*|
 |------------------|----------|--------------|--------*|
 |------------------|----------|--------------|--------*|

|
| Q E E E Q. E E E E E E E E H +W
 
 |------------------|-^2p0-----|--------------|--------*|
 |------------------|-^3---3-2-|--------------|--------*|
 |------------------|-^2-------|---------2----|-(2)----*|
 |-------2---2------|-^0-------|-------2------|--------*|
 |-----2------------|----------|-----4--------|--------*|
 |-4-------4--------|----------|---5----------|--------*| 


Important: The song above is NOT stored on the Chordie server. The original song is hosted at www.azchords.com. Chordie works as a search engine and provides on-the-fly formatting. Chordie does not index songs against artists'/composers' will. To remove this song please click here.

Text color:
Chord color:
Chord grids: 
Font size:    
Page size: 

A Bm7 D E
Rate #1 of 6 versions

Login - add to songbook

SHARE PAGE  



You need to log in to post comments