Guitar Tabs, Chords and Lyrics
Update 25:10. 13:00. Site is back up running again. Songbooks are recovered. Woring on getting search back up..


Rick Loves His Window   GrimSkunk

 
 e|---------------------------------|--------|
 B|---------------------------------|--------|
 G|-----0-------0-------0-------0---|--------|
 D|---0---0---0---0---0---0---0---0-|-5------|
 A|-3-------2-------1-------0-------|-5------|
 E|---------------------------------|-3------|

 


 | |


 

 
 |-----3-------3-------3-------3---|
 |---3---3---3---3---3---3---3---3-|
 |---------------------------------|
 |---------------------------------|
 |---------------------------------|
 |---------------------------------|

 


 


 [00:28] 


 Refrain


 6X


 

 
 e|----------------------------------|---------------------------|
 B|----------------------------------|---------------------------|
 G|----------------------------------|-----------------8-8-8-8-7-|
 D|-5-5-5-5-5-5-5--8-8-8-8--10-10-10-|-5-5-5-5-3-3-3-3-8-8-8-8-7-|
 A|-5-5-5-5-5-5-5--8-8-8-8--10-10-10-|-5-5-5-5-3-3-3-3-6-6-6-6-5-|
 E|-3-3-3-3-3-3-3--6-6-6-6--8--8--8--|-3-3-3-3-1-1-1-1-----------|

 


 | ¯¯¯¯¯|


 

 
 |-----------------11-11-11-11-10-|
 |-8-8-8-8-6-6-6-6-11-11-11-11-10-|
 |-7-7-7-7-5-5-5-5----------------|
 |--------------------------------|
 |--------------------------------|
 |--------------------------------|

 


 


 [00:49] 


 Refrain


 


 [01:10] 


 


 X4 X4


 

 
 e|--3----3---3---3----3---3---3---3-|--3----3---3---3----3---3---3---3-|
 B|-----3-------3--------3-------3---|-----3-------3--------3-------3---|
 G|----------------------------------|----------------------------------|
 D|----------------------------------|----------------------------------|
 A|------------------1-------3-------|------------------1-------3-------|
 E|-3--------------------------------|-3--------------------------------|

 


 | |


 

 
 E| |-------------------6-6-6--8-8-8---|
 B| |-------8--------8--6-6-6--8-8-8---|
 G| |-7b,br----7b,br-------------------|
 D| |----------------------------------|
 A| |----------------------------------|
 E| |----------------------------------|

 


 


 


 [01:36] 


 Refrain (1ere partie --> palm mute)


 pm..............................


 

 
 e|----------------------------------|---------------------------|
 B|----------------------------------|---------------------------|
 G|----------------------------------|-----------------8-8-8-8-7-|
 D|-5-5-5-5-5-5-5--8-8-8-8--10-10-10-|-5-5-5-5-3-3-3-3-8-8-8-8-7-|
 A|-5-5-5-5-5-5-5--8-8-8-8--10-10-10-|-5-5-5-5-3-3-3-3-6-6-6-6-5-|
 E|-3-3-3-3-3-3-3--6-6-6-6--8--8--8--|-3-3-3-3-1-1-1-1-----------|

 


 | | ¯¯¯¯¯|


 

 
 e|--3----3---3---3----3---3---3---3-|-----------------11-11-11-11-10-|
 B|-----3-------3--------3-------3---|-8-8-8-8-6-6-6-6-11-11-11-11-10-|
 G|----------------------------------|-7-7-7-7-5-5-5-5----------------|
 D|----------------------------------|--------------------------------|
 A|------------------1-------3-------|--------------------------------|
 E|-3--------------------------------|--------------------------------|

 


 


 [01:56] Fin


 


 

 
 E|----------------|
 B|----------------|
 G|---------3/5----|
 D|-5-5-5-5-3/5--5-|
 A|-5-5-5-5-1/3--5-|
 E|-3-3-3-3------3-|


Important: The song above is NOT stored on the Chordie server. The original song is hosted at www.azchords.com. Chordie works as a search engine and provides on-the-fly formatting. Chordie does not index songs against artists'/composers' will. To remove this song please click here.

This song is displayed as text-only. Transposing and tuning is only available for chordpro-songs.
Rate #1 of 1 versions

Login - add to songbook

SHARE PAGE  




You need to log in to post comments