Guitar Tabs, Chords and Lyrics
Update 25:10. 13:00. Site is back up running again. Songbooks are recovered. Woring on getting search back up..


Superheroes Never Die   GrimSkunk

 
 e|------------------------|
 B|------------------------|
 G|------------------2-2---|
 D|-4---2-4---2-4----2-2-2-|
 A|-4---2-4---2-4----0-0-2-|
 E|-2---0-2---0-2--------0-|

 


 |


 

 
 e|----------------------------------14------14------------|
 B|----7-------7-----------------14b-----14b-----14-14brbr-|
 G|-5b---5b------5brbr-------------------------------------|
 D|--------------------------------------------------------|
 A|--------------------------------------------------------|
 E|--------------------------------------------------------|

 


 


 [00:13] 


 Verse


 

 
 e|-----------------------------------------|
 B|-----------------------------------------|
 G|--------------------2--2-2--2------------|
 D|-4--4-4--4--4-4--4--2--2-2--2--2--2-2--2-| <----2X
 A|-4--4-4--4--4-4--4--0--0-0--0--2--2-2--2-|
 E|-2--2-2--0--2-2--0-------------0--0-0--0-|

 


 |


 

 
 e|-14-14-14--12-12-12--9-9-7-9-10-9----------------------------|
 B|------------------------------------7-10-10---10/12--10-7----|
 G|-------------------------------------------------------------|
 D|-------------------------------------------------------------|
 A|-------------------------------------------------------------|
 E|-------------------------------------------------------------|

 


 


 [00:20] 


 

 
 e|-----------------------------------------|
 B|-----------------------------------------|
 G|--------------------2--2-2--2------------| <-- 2X
 D|-4--4-4--4--4-4--4--2--2-2--2--2--2-2--2-|
 A|-4--4-4--4--4-4--4--0--0-0--0--2--2-2--2-|
 E|-2--2-2--0--2-2--0-------------0--0-0--0-|

 


 |


 

 
 e|-14-14-14--12-12-12--9-9-7-9-10-9------------------------|
 B|------------------------------------7-10-10---10/12-10---|
 G|---------------------------------------------------------|
 D|---------------------------------------------------------|
 A|---------------------------------------------------------|
 E|---------------------------------------------------------|

 


 


 [00:27] 


 Verse


 

 
 e|-----------------------------------------|
 B|-----------------------------------------|
 G|--------------------2--2-2--2------------|
 D|-4--4-4--4--4-4--4--2--2-2--2--2--2-2--2-|
 A|-4--4-4--4--4-4--4--0--0-0--0--2--2-2--2-|
 E|-2--2-2--0--2-2--0-------------0--0-0--0-|

 


 


 [00:40] 


 Refrain


 


 

 
 e|------------------------------------|
 B|------------------------------------|
 G|-7-7-7-7--2-2-2-2-------------------|
 D|-7-7-7-7--2-2-2-2--2-2-2-2--4-4-4-4-|
 A|-5-5-5-5--0-0-0-0--2-2-2-2--4-4-4-4-|
 E|-------------------0-0-0-0--2-2-2-2-|________________

 


 | ¯¯¯¯¯¯¯¯¯¯¯¯¯¯¯¯¯|


 

 
 e|-----------------------|----------------------|-----------------------|
 B|-----------------------|----------------------|-----------------------|
 G|-----------------------|----------------------|-----------------------|
 D|-----2---2-4-4--2-4/7--|------2---2-4-4--2-4--|------2---2-4-4--2-4/7-|
 A|-2-4-------------------|--2-4-----------------|--2-4------------------|
 E|-----------------------|----------------------|-----------------------|

 


 


 [00:53] 


 Pre-Verse


 


 [01:07] 


 Verse


 


 [01:21] 


 Refrain


 


 [01:31] 


 Repeter


 

 
 e|---------------------------------------|---------|
 B|---------------------------------------|---------|
 G|-7-7-7-7--2-2-2-2----------------------|---------|
 D|-7-7-7-7--2-2-2-2--2------4------------|---------|
 A|-5-5-5-5--0-0-0-0--2------4---------4--|--2----4-|
 E|-------------------0------2----0----2--|--0----2-|____
 pm.............|..............| |------------------------------------|
 |--------------------------------|
 |--------------------------------|
 |--------------------------------|
 |--5-7--5-7--5-7---3-5--3-5--3-5-|
 |--------------------------------|
 |--------------------------------|

 


 


 [01:49] 


 pm...................................................


 

 
 e|-------------------------------------------------------------|
 B|-------------------------------------------------------------|
 G|-------------------------------------------------------------|
 D|-11-11-11-11-11-11-11-11---9-9-9-9-9-9-9-9---11-12-----------|
 A|-------------------------------------------------------------|
 E|-------------------------------------------------------------|

 


 | pm........................... __________________________/


 

 
 |--------------------------------|
 |--------------------------------|
 |--------------------------------|
 |--5-7--5-7--5-7---3-5--3-5--3-5-|
 |--------------------------------|
 |--------------------------------|

 


 


 [02:03] 


 Pre-Verse


 


 [02:16] 


 Refrain


 


 [02:23] 


 


 

 
 e|--------------------------------------|
 B|--------------------------------------|
 G|-7-7-7-7--2-2-2-2------------2--------|
 D|-7-7-7-7--2-2-2-2--2----4----2----2---|
 A|-5-5-5-5--0-0-0-0--2----4----0----2---|
 E|-------------------0----2---------0---|

 


 


 [02:31] 


 Refrain


 


 [02:41] 


 [Fin]  

 
 e|--------------------------------------|
 B|--------------------------------------|
 G|-7-7-7-7--2-2-2-2---------2-----------|
 D|-7-7-7-7--2-2-2-2--2----2-2-2-4-------|
 A|-5-5-5-5--0-0-0-0--2----2-0-2-4------|
 E|-------------------0----0---0-2------|


Important: The song above is NOT stored on the Chordie server. The original song is hosted at www.azchords.com. Chordie works as a search engine and provides on-the-fly formatting. Chordie does not index songs against artists'/composers' will. To remove this song please click here.

This song is displayed as text-only. Transposing and tuning is only available for chordpro-songs.
Rate #1 of 1 versions

Login - add to songbook

SHARE PAGE  




You need to log in to post comments