Guitar Tabs, Chords and Lyrics
Major upgrade!! After one year development the new version of Chordie is now online! Please give feedback.


Empty Promises   Hatebreed

 
 E|-----------------------------------------------------------|
 B|--------------------------------------------3--------------|
 G|--------------------------------------------2--------------|
 D|------3------1------3------1------3------1--0--------------|
 A|------3------1------3------1------3------1--0--------------|
 D|-0000-3-0000-1-0000-3-0000-1-0000-3-0000-1--0--------------|X1

 


 


 Ok, now if you listen to this part, it sounds like they play it


 on just one string. Now i'm not sure, But I think it sounds better


 if you do for the first 2 times!


 Now, on the last part "1/3-4-4" for the second time, instead of


 going "1/3-4-4" go 1/3-4-4


 [1/3-4-4]  


 [1/3-4-4]  

 
 D|-----------------------------------------------------------|
 A|-----------------------------------------------------------|
 D|-3p0-0-0-0--1/3-3-3-3-3p0-0-0-0--1/3-4-4-------------------|X2
 D|-3p0-0-0-0--1/3-3-3-3-3p0-0-0-0--1/3-4-4-------------------|
 A|-3p0-0-0-0--1/3-3-3-3-3p0-0-0-0--1/3-4-4-------------------|
 D|-3p0-0-0-0--1/3-3-3-3-3p0-0-0-0--1/3-4-4-------------------|X3
 B|-------------------------------------------3---------------|
 G|-------------------------------------------2---------------|
 D|-3p0-0-0-0--1/3-3-3-3-3p0-0-0-0--1/3-4-3-1-0---------------|
 A|-3p0-0-0-0--1/3-3-3-3-3p0-0-0-0--1/3-4-3-1-0---------------|
 D|-3p0-0-0-0--1/3-3-3-3-3p0-0-0-0--1/3-4-3-1-0---------------|X1

 


 


 this part is just the same besides for the end. You have to do it kinda


 fast if you want it to sound right! And on the last cord, let it ring!


 


 

 
 E|-------|
 B|-3-----|
 G|-2-----|
 D|-0-----|
 A|-0-----|
 D|-0-----|X1

 


 now hit this one more time and keep it ringing!


 


 

 
 D|-----------------------------------------6-5-3-5|
 A|-----------------------------------------6-5-3-5|
 D|-0--36-535---0-365-35---0--36-535---0--3-6-5-3-5|X1

 


 x x x x


 


 ok, now this is like the best part of song.


 you dont think that my tab looks right, your wrong! you have to get


 the rythem right for the song to sound right, and how I tabed it, the


 rythem is RIGHT! So all i'm saying is get the rythem right, and it's


 going to sound awsome!


 


 

 
 D|-0--36-535---0-365-35---0--36-535---0-3-6-5-3-5|
 A|-0--36-535---0-365-35---0--36-535---0-3-6-5-3-5|
 D|-0--36-535---0-365-35---0--36-535---0-3-6-5-3-5|X2

 


 x x x x


 


 

 
 D|-0--36-535---0-365-35---0--36-535---0-365-35|
 A|-0--36-535---0-365-35---0--36-535---0-365-35|
 D|-0--36-535---0-365-35---0--36-535---0-365-35|x1
 D|-0--36-535---0-365-35---0--36-535---0-3-6-5-3-5|
 A|-0--36-535---0-365-35---0--36-535---0-3-6-5-3-5|
 D|-0--36-535---0-365-35---0--36-535---0-3-6-5-3-5|x1


Important: The song above is NOT stored on the Chordie server. The original song is hosted at www.azchords.com. Chordie works as a search engine and provides on-the-fly formatting. Chordie does not index songs against artists'/composers' will. To remove this song please click here.

This song is displayed as text-only. Transposing and tuning is only available for chordpro-songs.
Rate #1 of 1 versions

Jango Player

Login - add to songbook

SHARE PAGE  




You need to log in to post comments