Guitar Tabs, Chords and Lyrics
Major upgrade!! After one year development the new version of Chordie is now online! Please give feedback.


Freak Gasoline Fight Accident   It Dies Today

 
 |---------------------------------|
 |---------------------------------|
 |-"----"---"----"---"-"-"---------|
 |-7-10-7-9-7-10-7-9-7-9-7-9h7-----|
 |---------------------------------|
 |---------------------------------|

 


 


 Guitar 2


 Riff B


 

 
 |-------------------------------|
 |-------------------------------|
 |-------------------------------|
 |-7x-7x--------------3~-5~------|
 |-7x-7x--------------3~-5~------|
 |-7x-7x-/PICK-SLIDE\-3~-5~------|

 


 


 Guitar 1 keeps playing Riff A


 Guitar 2 then plays


 Riff C


 

 
 |------------|
 |------------|
 |------------|
 |-(fast)-----|
 |-"-"-"------|
 |-7-3-5------|

 


 Th[-]en[-] t[-]he vocals come in and Guitar 2 harmonizes with Guitar 1


 


 Guitar 1-keeps playing Riff A


 


 Guitar 2 (harmonized)


 Riff D


 

 
 |----------------------------|
 |----------------------------|
 |-"---"---"---"---"-"-"------|
 |-5-9-5-7-5-9-5-7-5-7-5-7h9--|
 |----------------------------|
 |----------------------------|


Important: The song above is NOT stored on the Chordie server. The original song is hosted at www.azchords.com. Chordie works as a search engine and provides on-the-fly formatting. Chordie does not index songs against artists'/composers' will. To remove this song please click here.

This song is displayed as text-only. Transposing and tuning is only available for chordpro-songs.
Rate #1 of 1 versions

Login - add to songbook

SHARE PAGE  




You need to log in to post comments