Guitar Tabs, Chords and Lyrics
Server problems seems to be fixed. Chordie has been experiencing problems with songs disappearing. These issues now seems to be fixed, but still verifying the fix. If you find anything strange, please email admin@chordie.com.


All The Time In The World  Jimmy Wayne

**Capo on 3th Fret!!!
Am 002210
C 032010
D/F# 200233
G 320033
[F] [133211]  
Intro
 
 E---------------------------------------------------------------------------------------1--0-------
 B----------------3--1-------------------3--1-----------------------3--1------------------------3--1-
 G-------------0-------0--------------0--------0----------------0---------0-----------0--------------
 D---------2----------------------2-------------------------0----------------------0-----------------
 A-----3-----------------------3-------------------------2----------------------2--------------------
 E---------------------------------------------------------------------------------------------------
 E---------------------------------------------------------------------------------------1--0------
 B--------------3--1-------------------3---1-------------------------3--1----------------------3--1-
 G-----------0--------0------------0----------0------------------0---------0----------0-------------
 D--------2---------------------2-----------------------------0--------------------0----------------
 A----0---------------------0-----------------------------------------------------------------------
 E---------------------------------------------------------3---------------------3------------------

Verses
Sat outside in the parking lot
All night long 'til the sun came up
Outside the diner where you used to work
Waiting for you to walk out, but you never did
No, you never did
I turned on the radio
Preacher man preaching about lettin' go
He said time can heal the broken soul
But I swear I don't kjnow if it ever will
If it ever will
 
 E---------------------------------------------------------------------------------------1--0--------
 B----------------3--1-------------------3--1-----------------------3--1------------------------3--1-
 G-------------0-------0--------------0--------0----------------0---------0-----------0--------------
 D---------2----------------------2-------------------------0----------------------0-----------------
 A-----3-----------------------3-------------------------2----------------------2--------------------
 E---------------------------------------------------------------------------------------------------
 E---------------------------------------------------------------------------------------1--0--------
 B--------------3--1-------------------3---1-------------------------3--1----------------------3--1--
 G-----------0--------0------------0----------0------------------0---------0----------0--------------
 D--------2---------------------2-----------------------------0--------------------0-----------------
 A----0---------------------0------------------------------------------------------------------------
 E---------------------------------------------------------3---------------------3-------------------
 E--------------------------------------------------------------------------------------
 B--------------3--1-------------------3---1-------------------------1--0---------0h1---
 G-----------0--------0------------0----------0------------------0---------0------------
 D--------2---------------------2-----------------------------0---------------0---------
 A----3---------------------3-----------------------------------------------------------
 E---------------------------------------------------------3----------------------------

Repeat Twice
Bridge 1
[Am]God [C]knows how hard I've [D/F#]tried[G]
[F]But I'm still [C]holdin' on [G]even though you're gone
Chorus
So let the [F]days turn to [C]nights
Let the [G]earth spin, let the [Am]years [C]roll [F]by
But I'll [C]still be lovin' [G]you
Let this [F]road lead me [C]on 'til the [G]hurt is gone
But I [Am]won't [C]forget you [D/F#]girl, even if I [F]had
All the [G]time in the world
 
 E-----------------------------------
 B--------------3--1-------------------
 G-----------0--------0----------------
 D--------2---------------------------
 A-----3------------------------------
 E-----------------------------------

Verse Repeat Once
Bridge 2
[Am]Could be a [C]thousand miles [D/F#]away[G]
[F]But there's no distance [C]long enough
'Cause [G]nothing's gonna change
Chorus Repeat Twice
So let the days turn to nights
Let the [G]earth spin, let the [Am]years [C]roll [F]by
But I'll [C]still be lovin' [G]you
Let this [F]road lead me [C]on 'til the [G]hurt is gone
But I [Am]won't [C]forget you [D/F#]girl, even if I [F]had
All the [G]time in the world
The End Tab
[C] [C] [C] 
 
 E--------------------------------------------------------------0--------
 B--------------3--1--------------3--1----------0--1--0---------1--------
 G-----------0--------0--------0--------0----0----------0-------0--------
 D--------2------------------2----------------------------2-----2--------
 A-----3------------------3-------------------------------------3--------
 E----------------------------------------------------------------------

Lyrics
Sat outside in the parking lot
All night long 'til the sun came up
Outside the diner where you used to work
Waiting for you to walk out, but you never did
No, you never did
I turned on the radio
Preacher man preaching about lettin' go
He said time can heal the broken soul
But I swear I don't kjnow if it ever will
If it ever will
God knows how hard I've tried
But I'm still holdin' on even though you're gone
So let the days turn to nights
Let the earth spin, let the years roll by
But I'll still be lovin' you
Let this road lead me on 'til the hurt is gone
But I won't forget you girl, even if I had
All the time in the world
I took a walk out in the rain
To clear my head and get some space
But in every drop I saw your face
You seem to follow me everywhere I go
Everywhere I go
Could be a thousand miles away
But there's no distance long enough
'Cause nothing's gonna change
So let the days turn to nights
Let the earth spin, let the years roll by
But I'll still be lovin' you
Let this road lead me on 'til the hurt is gone
But I won't forget you girl, even if I had
All the time in the world
All the time in the world
So let the days turn to nights
Let the earth spin, let the years roll by
But I'll still be lovin' you
So let the days turn to nights
Let the earth spin, let the years roll by
But I'll still be lovin' you
Let this road lead me on 'til the hurt is gone
But I won't forget you girl, even if I had
All the time in the world

Important: The song above is NOT stored on the Chordie server. The original song is hosted at www.azchords.com. Chordie works as a search engine and provides on-the-fly formatting. Chordie does not index songs against artists'/composers' will. To remove this song please click here.

Text color:
Chord color:
Chord grids: 
Font size:    
Page size: 

Am C D/F# F G
Rate #1 of 1 versions

Login - add to songbook

SHARE PAGE  




You need to log in to post comments